ISO-10303-21;
HEADER;
/* Generated by software containing ST-Developer
 * from STEP Tools, Inc. (www.steptools.com) 
 */

FILE_DESCRIPTION(
/* description */ (''),
/* implementation_level */ '2;1');

FILE_NAME(
/* name */ 
'C:\\Users\\cecilia\\Documents\\a-docencia\\2020\\asistida\\teoricos\\
fwdpiezasdesolidworks\\bracket.stp',
/* time_stamp */ '2021-09-28T11:28:21-03:00',
/* author */ ('cecilia'),
/* organization */ (''),
/* preprocessor_version */ 'ST-DEVELOPER v17',
/* originating_system */ 'Autodesk Inventor 2019',
/* authorisation */ '');

FILE_SCHEMA (('AUTOMOTIVE_DESIGN { 1 0 10303 214 3 1 1 }'));
ENDSEC;

DATA;
#10=MECHANICAL_DESIGN_GEOMETRIC_PRESENTATION_REPRESENTATION('',(#13),#656);
#11=SHAPE_REPRESENTATION_RELATIONSHIP('SRR','None',#666,#12);
#12=ADVANCED_BREP_SHAPE_REPRESENTATION('',(#14),#655);
#13=STYLED_ITEM('',(#675),#14);
#14=MANIFOLD_SOLID_BREP('Solid1',#380);
#15=CYLINDRICAL_SURFACE('',#428,0.125);
#16=CYLINDRICAL_SURFACE('',#429,0.125);
#17=CYLINDRICAL_SURFACE('',#430,0.125);
#18=CYLINDRICAL_SURFACE('',#431,0.375);
#19=CYLINDRICAL_SURFACE('',#432,0.375);
#20=CYLINDRICAL_SURFACE('',#433,0.375);
#21=CYLINDRICAL_SURFACE('',#434,0.25);
#22=FACE_BOUND('',#64,.T.);
#23=FACE_BOUND('',#70,.T.);
#24=CIRCLE('',#403,0.375);
#25=CIRCLE('',#404,0.375);
#26=CIRCLE('',#405,0.375);
#27=CIRCLE('',#406,0.125);
#28=CIRCLE('',#407,0.125);
#29=CIRCLE('',#408,0.125);
#30=CIRCLE('',#411,0.25);
#31=CIRCLE('',#412,0.25);
#32=CIRCLE('',#416,0.375);
#33=CIRCLE('',#417,0.125);
#34=CIRCLE('',#418,0.125);
#35=CIRCLE('',#419,0.125);
#36=CIRCLE('',#420,0.375);
#37=CIRCLE('',#421,0.375);
#38=CIRCLE('',#424,0.25);
#39=CIRCLE('',#425,0.25);
#40=FACE_OUTER_BOUND('',#59,.T.);
#41=FACE_OUTER_BOUND('',#60,.T.);
#42=FACE_OUTER_BOUND('',#61,.T.);
#43=FACE_OUTER_BOUND('',#62,.T.);
#44=FACE_OUTER_BOUND('',#63,.T.);
#45=FACE_OUTER_BOUND('',#65,.T.);
#46=FACE_OUTER_BOUND('',#66,.T.);
#47=FACE_OUTER_BOUND('',#67,.T.);
#48=FACE_OUTER_BOUND('',#68,.T.);
#49=FACE_OUTER_BOUND('',#69,.T.);
#50=FACE_OUTER_BOUND('',#71,.T.);
#51=FACE_OUTER_BOUND('',#72,.T.);
#52=FACE_OUTER_BOUND('',#73,.T.);
#53=FACE_OUTER_BOUND('',#74,.T.);
#54=FACE_OUTER_BOUND('',#75,.T.);
#55=FACE_OUTER_BOUND('',#76,.T.);
#56=FACE_OUTER_BOUND('',#77,.T.);
#57=FACE_OUTER_BOUND('',#78,.T.);
#58=FACE_OUTER_BOUND('',#79,.T.);
#59=EDGE_LOOP('',(#243,#244,#245,#246));
#60=EDGE_LOOP('',(#247,#248,#249,#250));
#61=EDGE_LOOP('',(#251,#252,#253,#254,#255,#256,#257,#258,#259,#260,#261,
#262,#263,#264,#265,#266));
#62=EDGE_LOOP('',(#267,#268,#269,#270));
#63=EDGE_LOOP('',(#271,#272,#273,#274));
#64=EDGE_LOOP('',(#275,#276));
#65=EDGE_LOOP('',(#277,#278,#279,#280));
#66=EDGE_LOOP('',(#281,#282,#283,#284));
#67=EDGE_LOOP('',(#285,#286,#287,#288,#289,#290,#291,#292,#293,#294,#295,
#296,#297,#298,#299,#300));
#68=EDGE_LOOP('',(#301,#302,#303,#304));
#69=EDGE_LOOP('',(#305,#306,#307,#308));
#70=EDGE_LOOP('',(#309,#310));
#71=EDGE_LOOP('',(#311,#312,#313,#314));
#72=EDGE_LOOP('',(#315,#316,#317,#318));
#73=EDGE_LOOP('',(#319,#320,#321,#322));
#74=EDGE_LOOP('',(#323,#324,#325,#326));
#75=EDGE_LOOP('',(#327,#328,#329,#330));
#76=EDGE_LOOP('',(#331,#332,#333,#334));
#77=EDGE_LOOP('',(#335,#336,#337,#338));
#78=EDGE_LOOP('',(#339,#340,#341,#342));
#79=EDGE_LOOP('',(#343,#344,#345,#346,#347,#348));
#80=LINE('',#548,#117);
#81=LINE('',#550,#118);
#82=LINE('',#552,#119);
#83=LINE('',#553,#120);
#84=LINE('',#557,#121);
#85=LINE('',#559,#122);
#86=LINE('',#561,#123);
#87=LINE('',#562,#124);
#88=LINE('',#565,#125);
#89=LINE('',#569,#126);
#90=LINE('',#573,#127);
#91=LINE('',#576,#128);
#92=LINE('',#578,#129);
#93=LINE('',#582,#130);
#94=LINE('',#586,#131);
#95=LINE('',#589,#132);
#96=LINE('',#592,#133);
#97=LINE('',#594,#134);
#98=LINE('',#595,#135);
#99=LINE('',#598,#136);
#100=LINE('',#599,#137);
#101=LINE('',#606,#138);
#102=LINE('',#607,#139);
#103=LINE('',#610,#140);
#104=LINE('',#612,#141);
#105=LINE('',#613,#142);
#106=LINE('',#617,#143);
#107=LINE('',#621,#144);
#108=LINE('',#625,#145);
#109=LINE('',#628,#146);
#110=LINE('',#632,#147);
#111=LINE('',#633,#148);
#112=LINE('',#635,#149);
#113=LINE('',#641,#150);
#114=LINE('',#643,#151);
#115=LINE('',#644,#152);
#116=LINE('',#652,#153);
#117=VECTOR('',#439,1.5);
#118=VECTOR('',#440,0.25);
#119=VECTOR('',#441,1.5);
#120=VECTOR('',#442,0.25);
#121=VECTOR('',#445,0.25);
#122=VECTOR('',#446,1.5);
#123=VECTOR('',#447,0.25);
#124=VECTOR('',#448,1.5);
#125=VECTOR('',#451,1.63811805101344);
#126=VECTOR('',#454,1.57950372071672);
#127=VECTOR('',#457,3.);
#128=VECTOR('',#460,2.125);
#129=VECTOR('',#461,2.125);
#130=VECTOR('',#464,3.);
#131=VECTOR('',#467,1.57950372071672);
#132=VECTOR('',#470,1.63811805101344);
#133=VECTOR('',#473,1.5);
#134=VECTOR('',#474,3.);
#135=VECTOR('',#475,1.5);
#136=VECTOR('',#478,1.5);
#137=VECTOR('',#479,2.125);
#138=VECTOR('',#486,1.63811805101344);
#139=VECTOR('',#487,1.5);
#140=VECTOR('',#490,1.5);
#141=VECTOR('',#491,1.57950372071672);
#142=VECTOR('',#492,1.5);
#143=VECTOR('',#497,1.63811805101344);
#144=VECTOR('',#500,1.57950372071672);
#145=VECTOR('',#503,3.);
#146=VECTOR('',#506,2.125);
#147=VECTOR('',#513,1.5);
#148=VECTOR('',#514,1.5);
#149=VECTOR('',#517,1.5);
#150=VECTOR('',#524,1.5);
#151=VECTOR('',#527,1.5);
#152=VECTOR('',#528,1.5);
#153=VECTOR('',#543,0.25);
#154=VERTEX_POINT('',#546);
#155=VERTEX_POINT('',#547);
#156=VERTEX_POINT('',#549);
#157=VERTEX_POINT('',#551);
#158=VERTEX_POINT('',#555);
#159=VERTEX_POINT('',#556);
#160=VERTEX_POINT('',#558);
#161=VERTEX_POINT('',#560);
#162=VERTEX_POINT('',#564);
#163=VERTEX_POINT('',#566);
#164=VERTEX_POINT('',#568);
#165=VERTEX_POINT('',#570);
#166=VERTEX_POINT('',#572);
#167=VERTEX_POINT('',#574);
#168=VERTEX_POINT('',#577);
#169=VERTEX_POINT('',#579);
#170=VERTEX_POINT('',#581);
#171=VERTEX_POINT('',#583);
#172=VERTEX_POINT('',#585);
#173=VERTEX_POINT('',#587);
#174=VERTEX_POINT('',#591);
#175=VERTEX_POINT('',#593);
#176=VERTEX_POINT('',#597);
#177=VERTEX_POINT('',#600);
#178=VERTEX_POINT('',#601);
#179=VERTEX_POINT('',#605);
#180=VERTEX_POINT('',#609);
#181=VERTEX_POINT('',#611);
#182=VERTEX_POINT('',#616);
#183=VERTEX_POINT('',#618);
#184=VERTEX_POINT('',#620);
#185=VERTEX_POINT('',#622);
#186=VERTEX_POINT('',#624);
#187=VERTEX_POINT('',#626);
#188=VERTEX_POINT('',#636);
#189=VERTEX_POINT('',#637);
#190=EDGE_CURVE('',#154,#155,#80,.T.);
#191=EDGE_CURVE('',#156,#154,#81,.T.);
#192=EDGE_CURVE('',#156,#157,#82,.T.);
#193=EDGE_CURVE('',#157,#155,#83,.T.);
#194=EDGE_CURVE('',#158,#159,#84,.T.);
#195=EDGE_CURVE('',#159,#160,#85,.T.);
#196=EDGE_CURVE('',#161,#160,#86,.T.);
#197=EDGE_CURVE('',#158,#161,#87,.T.);
#198=EDGE_CURVE('',#158,#162,#88,.T.);
#199=EDGE_CURVE('',#162,#163,#24,.T.);
#200=EDGE_CURVE('',#163,#164,#89,.T.);
#201=EDGE_CURVE('',#164,#165,#25,.T.);
#202=EDGE_CURVE('',#166,#165,#90,.T.);
#203=EDGE_CURVE('',#166,#167,#26,.T.);
#204=EDGE_CURVE('',#156,#167,#91,.T.);
#205=EDGE_CURVE('',#154,#168,#92,.T.);
#206=EDGE_CURVE('',#168,#169,#27,.F.);
#207=EDGE_CURVE('',#169,#170,#93,.T.);
#208=EDGE_CURVE('',#170,#171,#28,.F.);
#209=EDGE_CURVE('',#172,#171,#94,.T.);
#210=EDGE_CURVE('',#172,#173,#29,.F.);
#211=EDGE_CURVE('',#159,#173,#95,.T.);
#212=EDGE_CURVE('',#165,#174,#96,.T.);
#213=EDGE_CURVE('',#175,#174,#97,.T.);
#214=EDGE_CURVE('',#175,#166,#98,.F.);
#215=EDGE_CURVE('',#167,#176,#99,.T.);
#216=EDGE_CURVE('',#157,#176,#100,.T.);
#217=EDGE_CURVE('',#177,#178,#30,.T.);
#218=EDGE_CURVE('',#178,#177,#31,.T.);
#219=EDGE_CURVE('',#161,#179,#101,.T.);
#220=EDGE_CURVE('',#179,#162,#102,.F.);
#221=EDGE_CURVE('',#163,#180,#103,.T.);
#222=EDGE_CURVE('',#180,#181,#104,.T.);
#223=EDGE_CURVE('',#181,#164,#105,.F.);
#224=EDGE_CURVE('',#180,#179,#32,.F.);
#225=EDGE_CURVE('',#160,#182,#106,.T.);
#226=EDGE_CURVE('',#182,#183,#33,.T.);
#227=EDGE_CURVE('',#183,#184,#107,.T.);
#228=EDGE_CURVE('',#184,#185,#34,.T.);
#229=EDGE_CURVE('',#186,#185,#108,.T.);
#230=EDGE_CURVE('',#186,#187,#35,.T.);
#231=EDGE_CURVE('',#155,#187,#109,.T.);
#232=EDGE_CURVE('',#176,#175,#36,.F.);
#233=EDGE_CURVE('',#174,#181,#37,.F.);
#234=EDGE_CURVE('',#185,#170,#110,.F.);
#235=EDGE_CURVE('',#169,#186,#111,.T.);
#236=EDGE_CURVE('',#187,#168,#112,.F.);
#237=EDGE_CURVE('',#188,#189,#38,.F.);
#238=EDGE_CURVE('',#189,#188,#39,.F.);
#239=EDGE_CURVE('',#173,#182,#113,.T.);
#240=EDGE_CURVE('',#183,#172,#114,.F.);
#241=EDGE_CURVE('',#171,#184,#115,.T.);
#242=EDGE_CURVE('',#189,#178,#116,.T.);
#243=ORIENTED_EDGE('',*,*,#190,.F.);
#244=ORIENTED_EDGE('',*,*,#191,.F.);
#245=ORIENTED_EDGE('',*,*,#192,.T.);
#246=ORIENTED_EDGE('',*,*,#193,.T.);
#247=ORIENTED_EDGE('',*,*,#194,.T.);
#248=ORIENTED_EDGE('',*,*,#195,.T.);
#249=ORIENTED_EDGE('',*,*,#196,.F.);
#250=ORIENTED_EDGE('',*,*,#197,.F.);
#251=ORIENTED_EDGE('',*,*,#198,.T.);
#252=ORIENTED_EDGE('',*,*,#199,.T.);
#253=ORIENTED_EDGE('',*,*,#200,.T.);
#254=ORIENTED_EDGE('',*,*,#201,.T.);
#255=ORIENTED_EDGE('',*,*,#202,.F.);
#256=ORIENTED_EDGE('',*,*,#203,.T.);
#257=ORIENTED_EDGE('',*,*,#204,.F.);
#258=ORIENTED_EDGE('',*,*,#191,.T.);
#259=ORIENTED_EDGE('',*,*,#205,.T.);
#260=ORIENTED_EDGE('',*,*,#206,.T.);
#261=ORIENTED_EDGE('',*,*,#207,.T.);
#262=ORIENTED_EDGE('',*,*,#208,.T.);
#263=ORIENTED_EDGE('',*,*,#209,.F.);
#264=ORIENTED_EDGE('',*,*,#210,.T.);
#265=ORIENTED_EDGE('',*,*,#211,.F.);
#266=ORIENTED_EDGE('',*,*,#194,.F.);
#267=ORIENTED_EDGE('',*,*,#202,.T.);
#268=ORIENTED_EDGE('',*,*,#212,.T.);
#269=ORIENTED_EDGE('',*,*,#213,.F.);
#270=ORIENTED_EDGE('',*,*,#214,.T.);
#271=ORIENTED_EDGE('',*,*,#204,.T.);
#272=ORIENTED_EDGE('',*,*,#215,.T.);
#273=ORIENTED_EDGE('',*,*,#216,.F.);
#274=ORIENTED_EDGE('',*,*,#192,.F.);
#275=ORIENTED_EDGE('',*,*,#217,.F.);
#276=ORIENTED_EDGE('',*,*,#218,.F.);
#277=ORIENTED_EDGE('',*,*,#219,.T.);
#278=ORIENTED_EDGE('',*,*,#220,.T.);
#279=ORIENTED_EDGE('',*,*,#198,.F.);
#280=ORIENTED_EDGE('',*,*,#197,.T.);
#281=ORIENTED_EDGE('',*,*,#200,.F.);
#282=ORIENTED_EDGE('',*,*,#221,.T.);
#283=ORIENTED_EDGE('',*,*,#222,.T.);
#284=ORIENTED_EDGE('',*,*,#223,.T.);
#285=ORIENTED_EDGE('',*,*,#222,.F.);
#286=ORIENTED_EDGE('',*,*,#224,.T.);
#287=ORIENTED_EDGE('',*,*,#219,.F.);
#288=ORIENTED_EDGE('',*,*,#196,.T.);
#289=ORIENTED_EDGE('',*,*,#225,.T.);
#290=ORIENTED_EDGE('',*,*,#226,.T.);
#291=ORIENTED_EDGE('',*,*,#227,.T.);
#292=ORIENTED_EDGE('',*,*,#228,.T.);
#293=ORIENTED_EDGE('',*,*,#229,.F.);
#294=ORIENTED_EDGE('',*,*,#230,.T.);
#295=ORIENTED_EDGE('',*,*,#231,.F.);
#296=ORIENTED_EDGE('',*,*,#193,.F.);
#297=ORIENTED_EDGE('',*,*,#216,.T.);
#298=ORIENTED_EDGE('',*,*,#232,.T.);
#299=ORIENTED_EDGE('',*,*,#213,.T.);
#300=ORIENTED_EDGE('',*,*,#233,.T.);
#301=ORIENTED_EDGE('',*,*,#229,.T.);
#302=ORIENTED_EDGE('',*,*,#234,.T.);
#303=ORIENTED_EDGE('',*,*,#207,.F.);
#304=ORIENTED_EDGE('',*,*,#235,.T.);
#305=ORIENTED_EDGE('',*,*,#231,.T.);
#306=ORIENTED_EDGE('',*,*,#236,.T.);
#307=ORIENTED_EDGE('',*,*,#205,.F.);
#308=ORIENTED_EDGE('',*,*,#190,.T.);
#309=ORIENTED_EDGE('',*,*,#237,.F.);
#310=ORIENTED_EDGE('',*,*,#238,.F.);
#311=ORIENTED_EDGE('',*,*,#211,.T.);
#312=ORIENTED_EDGE('',*,*,#239,.T.);
#313=ORIENTED_EDGE('',*,*,#225,.F.);
#314=ORIENTED_EDGE('',*,*,#195,.F.);
#315=ORIENTED_EDGE('',*,*,#227,.F.);
#316=ORIENTED_EDGE('',*,*,#240,.T.);
#317=ORIENTED_EDGE('',*,*,#209,.T.);
#318=ORIENTED_EDGE('',*,*,#241,.T.);
#319=ORIENTED_EDGE('',*,*,#210,.F.);
#320=ORIENTED_EDGE('',*,*,#240,.F.);
#321=ORIENTED_EDGE('',*,*,#226,.F.);
#322=ORIENTED_EDGE('',*,*,#239,.F.);
#323=ORIENTED_EDGE('',*,*,#208,.F.);
#324=ORIENTED_EDGE('',*,*,#234,.F.);
#325=ORIENTED_EDGE('',*,*,#228,.F.);
#326=ORIENTED_EDGE('',*,*,#241,.F.);
#327=ORIENTED_EDGE('',*,*,#206,.F.);
#328=ORIENTED_EDGE('',*,*,#236,.F.);
#329=ORIENTED_EDGE('',*,*,#230,.F.);
#330=ORIENTED_EDGE('',*,*,#235,.F.);
#331=ORIENTED_EDGE('',*,*,#199,.F.);
#332=ORIENTED_EDGE('',*,*,#220,.F.);
#333=ORIENTED_EDGE('',*,*,#224,.F.);
#334=ORIENTED_EDGE('',*,*,#221,.F.);
#335=ORIENTED_EDGE('',*,*,#201,.F.);
#336=ORIENTED_EDGE('',*,*,#223,.F.);
#337=ORIENTED_EDGE('',*,*,#233,.F.);
#338=ORIENTED_EDGE('',*,*,#212,.F.);
#339=ORIENTED_EDGE('',*,*,#203,.F.);
#340=ORIENTED_EDGE('',*,*,#214,.F.);
#341=ORIENTED_EDGE('',*,*,#232,.F.);
#342=ORIENTED_EDGE('',*,*,#215,.F.);
#343=ORIENTED_EDGE('',*,*,#237,.T.);
#344=ORIENTED_EDGE('',*,*,#242,.T.);
#345=ORIENTED_EDGE('',*,*,#218,.T.);
#346=ORIENTED_EDGE('',*,*,#217,.T.);
#347=ORIENTED_EDGE('',*,*,#242,.F.);
#348=ORIENTED_EDGE('',*,*,#238,.T.);
#349=PLANE('',#400);
#350=PLANE('',#401);
#351=PLANE('',#402);
#352=PLANE('',#409);
#353=PLANE('',#410);
#354=PLANE('',#413);
#355=PLANE('',#414);
#356=PLANE('',#415);
#357=PLANE('',#422);
#358=PLANE('',#423);
#359=PLANE('',#426);
#360=PLANE('',#427);
#361=ADVANCED_FACE('',(#40),#349,.F.);
#362=ADVANCED_FACE('',(#41),#350,.T.);
#363=ADVANCED_FACE('',(#42),#351,.T.);
#364=ADVANCED_FACE('',(#43),#352,.T.);
#365=ADVANCED_FACE('',(#44,#22),#353,.T.);
#366=ADVANCED_FACE('',(#45),#354,.F.);
#367=ADVANCED_FACE('',(#46),#355,.F.);
#368=ADVANCED_FACE('',(#47),#356,.F.);
#369=ADVANCED_FACE('',(#48),#357,.F.);
#370=ADVANCED_FACE('',(#49,#23),#358,.F.);
#371=ADVANCED_FACE('',(#50),#359,.T.);
#372=ADVANCED_FACE('',(#51),#360,.T.);
#373=ADVANCED_FACE('',(#52),#15,.F.);
#374=ADVANCED_FACE('',(#53),#16,.F.);
#375=ADVANCED_FACE('',(#54),#17,.F.);
#376=ADVANCED_FACE('',(#55),#18,.T.);
#377=ADVANCED_FACE('',(#56),#19,.T.);
#378=ADVANCED_FACE('',(#57),#20,.T.);
#379=ADVANCED_FACE('',(#58),#21,.F.);
#380=CLOSED_SHELL('',(#361,#362,#363,#364,#365,#366,#367,#368,#369,#370,
#371,#372,#373,#374,#375,#376,#377,#378,#379));
#381=DERIVED_UNIT_ELEMENT(#383,1.);
#382=DERIVED_UNIT_ELEMENT(#660,3.);
#383=(
MASS_UNIT()
NAMED_UNIT(*)
SI_UNIT($,.GRAM.)
);
#384=DERIVED_UNIT((#381,#382));
#385=MEASURE_REPRESENTATION_ITEM('density measure',
POSITIVE_RATIO_MEASURE(1.),#384);
#386=PROPERTY_DEFINITION_REPRESENTATION(#391,#388);
#387=PROPERTY_DEFINITION_REPRESENTATION(#392,#389);
#388=REPRESENTATION('material name',(#390),#655);
#389=REPRESENTATION('density',(#385),#655);
#390=DESCRIPTIVE_REPRESENTATION_ITEM('Generic','Generic');
#391=PROPERTY_DEFINITION('material property','material name',#668);
#392=PROPERTY_DEFINITION('material property','density of part',#668);
#393=DATE_TIME_ROLE('creation_date');
#394=APPLIED_DATE_AND_TIME_ASSIGNMENT(#395,#393,(#668));
#395=DATE_AND_TIME(#396,#397);
#396=CALENDAR_DATE(1996,6,8);
#397=LOCAL_TIME(17,38,15.,#398);
#398=COORDINATED_UNIVERSAL_TIME_OFFSET(0,0,.BEHIND.);
#399=AXIS2_PLACEMENT_3D('placement',#544,#435,#436);
#400=AXIS2_PLACEMENT_3D('',#545,#437,#438);
#401=AXIS2_PLACEMENT_3D('',#554,#443,#444);
#402=AXIS2_PLACEMENT_3D('',#563,#449,#450);
#403=AXIS2_PLACEMENT_3D('',#567,#452,#453);
#404=AXIS2_PLACEMENT_3D('',#571,#455,#456);
#405=AXIS2_PLACEMENT_3D('',#575,#458,#459);
#406=AXIS2_PLACEMENT_3D('',#580,#462,#463);
#407=AXIS2_PLACEMENT_3D('',#584,#465,#466);
#408=AXIS2_PLACEMENT_3D('',#588,#468,#469);
#409=AXIS2_PLACEMENT_3D('',#590,#471,#472);
#410=AXIS2_PLACEMENT_3D('',#596,#476,#477);
#411=AXIS2_PLACEMENT_3D('',#602,#480,#481);
#412=AXIS2_PLACEMENT_3D('',#603,#482,#483);
#413=AXIS2_PLACEMENT_3D('',#604,#484,#485);
#414=AXIS2_PLACEMENT_3D('',#608,#488,#489);
#415=AXIS2_PLACEMENT_3D('',#614,#493,#494);
#416=AXIS2_PLACEMENT_3D('',#615,#495,#496);
#417=AXIS2_PLACEMENT_3D('',#619,#498,#499);
#418=AXIS2_PLACEMENT_3D('',#623,#501,#502);
#419=AXIS2_PLACEMENT_3D('',#627,#504,#505);
#420=AXIS2_PLACEMENT_3D('',#629,#507,#508);
#421=AXIS2_PLACEMENT_3D('',#630,#509,#510);
#422=AXIS2_PLACEMENT_3D('',#631,#511,#512);
#423=AXIS2_PLACEMENT_3D('',#634,#515,#516);
#424=AXIS2_PLACEMENT_3D('',#638,#518,#519);
#425=AXIS2_PLACEMENT_3D('',#639,#520,#521);
#426=AXIS2_PLACEMENT_3D('',#640,#522,#523);
#427=AXIS2_PLACEMENT_3D('',#642,#525,#526);
#428=AXIS2_PLACEMENT_3D('',#645,#529,#530);
#429=AXIS2_PLACEMENT_3D('',#646,#531,#532);
#430=AXIS2_PLACEMENT_3D('',#647,#533,#534);
#431=AXIS2_PLACEMENT_3D('',#648,#535,#536);
#432=AXIS2_PLACEMENT_3D('',#649,#537,#538);
#433=AXIS2_PLACEMENT_3D('',#650,#539,#540);
#434=AXIS2_PLACEMENT_3D('',#651,#541,#542);
#435=DIRECTION('axis',(0.,0.,1.));
#436=DIRECTION('refdir',(1.,0.,0.));
#437=DIRECTION('center_axis',(0.,-2.22710228197221E-16,-1.));
#438=DIRECTION('ref_axis',(-1.,0.,0.));
#439=DIRECTION('',(-1.,0.,0.));
#440=DIRECTION('',(0.,-1.,0.));
#441=DIRECTION('',(-1.,0.,0.));
#442=DIRECTION('',(0.,-1.,0.));
#443=DIRECTION('center_axis',(0.,0.64278760968654,0.766044443118977));
#444=DIRECTION('ref_axis',(1.,0.,0.));
#445=DIRECTION('',(0.,0.766044443118977,-0.64278760968654));
#446=DIRECTION('',(-1.,0.,0.));
#447=DIRECTION('',(0.,0.766044443118977,-0.64278760968654));
#448=DIRECTION('',(-1.,0.,0.));
#449=DIRECTION('center_axis',(1.,0.,0.));
#450=DIRECTION('ref_axis',(0.,0.,-1.));
#451=DIRECTION('',(0.,-0.64278760968654,-0.766044443118977));
#452=DIRECTION('center_axis',(1.,0.,0.));
#453=DIRECTION('ref_axis',(0.,0.,-1.));
#454=DIRECTION('',(0.,0.,-1.));
#455=DIRECTION('center_axis',(1.,0.,0.));
#456=DIRECTION('ref_axis',(0.,0.,-1.));
#457=DIRECTION('',(0.,-1.,0.));
#458=DIRECTION('center_axis',(1.,0.,0.));
#459=DIRECTION('ref_axis',(0.,0.,-1.));
#460=DIRECTION('',(0.,0.,-1.));
#461=DIRECTION('',(0.,0.,-1.));
#462=DIRECTION('center_axis',(1.,0.,0.));
#463=DIRECTION('ref_axis',(0.,0.,-1.));
#464=DIRECTION('',(0.,-1.,-8.06913484048355E-19));
#465=DIRECTION('center_axis',(1.,0.,0.));
#466=DIRECTION('ref_axis',(0.,0.,-1.));
#467=DIRECTION('',(0.,0.,-1.));
#468=DIRECTION('center_axis',(1.,0.,0.));
#469=DIRECTION('ref_axis',(0.,0.,-1.));
#470=DIRECTION('',(0.,-0.642787609686541,-0.766044443118977));
#471=DIRECTION('center_axis',(0.,8.06913484048355E-19,-1.));
#472=DIRECTION('ref_axis',(-1.,0.,0.));
#473=DIRECTION('',(-1.,0.,0.));
#474=DIRECTION('',(0.,-1.,0.));
#475=DIRECTION('',(-1.,0.,0.));
#476=DIRECTION('center_axis',(0.,1.,0.));
#477=DIRECTION('ref_axis',(0.,0.,1.));
#478=DIRECTION('',(-1.,0.,0.));
#479=DIRECTION('',(0.,0.,-1.));
#480=DIRECTION('center_axis',(0.,1.,0.));
#481=DIRECTION('ref_axis',(0.,0.,1.));
#482=DIRECTION('center_axis',(0.,1.,0.));
#483=DIRECTION('ref_axis',(0.,0.,1.));
#484=DIRECTION('center_axis',(0.,0.766044443118977,-0.642787609686541));
#485=DIRECTION('ref_axis',(-1.,0.,0.));
#486=DIRECTION('',(0.,-0.64278760968654,-0.766044443118977));
#487=DIRECTION('',(-1.,0.,0.));
#488=DIRECTION('center_axis',(0.,1.,0.));
#489=DIRECTION('ref_axis',(0.,0.,1.));
#490=DIRECTION('',(-1.,0.,0.));
#491=DIRECTION('',(0.,0.,-1.));
#492=DIRECTION('',(-1.,0.,0.));
#493=DIRECTION('center_axis',(1.,0.,0.));
#494=DIRECTION('ref_axis',(0.,0.,-1.));
#495=DIRECTION('center_axis',(1.,0.,0.));
#496=DIRECTION('ref_axis',(0.,0.,-1.));
#497=DIRECTION('',(0.,-0.642787609686541,-0.766044443118977));
#498=DIRECTION('center_axis',(1.,0.,0.));
#499=DIRECTION('ref_axis',(0.,0.,-1.));
#500=DIRECTION('',(0.,0.,-1.));
#501=DIRECTION('center_axis',(1.,0.,0.));
#502=DIRECTION('ref_axis',(0.,0.,-1.));
#503=DIRECTION('',(0.,-1.,-8.06913484048355E-19));
#504=DIRECTION('center_axis',(1.,0.,0.));
#505=DIRECTION('ref_axis',(0.,0.,-1.));
#506=DIRECTION('',(0.,0.,-1.));
#507=DIRECTION('center_axis',(1.,0.,0.));
#508=DIRECTION('ref_axis',(0.,0.,-1.));
#509=DIRECTION('center_axis',(1.,0.,0.));
#510=DIRECTION('ref_axis',(0.,0.,-1.));
#511=DIRECTION('center_axis',(0.,8.06913484048355E-19,-1.));
#512=DIRECTION('ref_axis',(-1.,0.,0.));
#513=DIRECTION('',(-1.,0.,0.));
#514=DIRECTION('',(-1.,0.,0.));
#515=DIRECTION('center_axis',(0.,1.,0.));
#516=DIRECTION('ref_axis',(0.,0.,1.));
#517=DIRECTION('',(-1.,0.,0.));
#518=DIRECTION('center_axis',(0.,1.,0.));
#519=DIRECTION('ref_axis',(0.,0.,1.));
#520=DIRECTION('center_axis',(0.,1.,0.));
#521=DIRECTION('ref_axis',(0.,0.,1.));
#522=DIRECTION('center_axis',(0.,0.766044443118977,-0.642787609686541));
#523=DIRECTION('ref_axis',(-1.,0.,0.));
#524=DIRECTION('',(-1.,0.,0.));
#525=DIRECTION('center_axis',(0.,1.,0.));
#526=DIRECTION('ref_axis',(0.,0.,1.));
#527=DIRECTION('',(-1.,0.,0.));
#528=DIRECTION('',(-1.,0.,0.));
#529=DIRECTION('center_axis',(1.,0.,0.));
#530=DIRECTION('ref_axis',(0.,0.,-1.));
#531=DIRECTION('center_axis',(-1.,0.,0.));
#532=DIRECTION('ref_axis',(0.,0.,1.));
#533=DIRECTION('center_axis',(1.,0.,0.));
#534=DIRECTION('ref_axis',(0.,0.,-1.));
#535=DIRECTION('center_axis',(-1.,0.,0.));
#536=DIRECTION('ref_axis',(0.,0.,1.));
#537=DIRECTION('center_axis',(1.,0.,0.));
#538=DIRECTION('ref_axis',(0.,0.,-1.));
#539=DIRECTION('center_axis',(-1.,0.,0.));
#540=DIRECTION('ref_axis',(0.,0.,1.));
#541=DIRECTION('center_axis',(0.,1.,0.));
#542=DIRECTION('ref_axis',(0.,0.,1.));
#543=DIRECTION('',(0.,1.,0.));
#544=CARTESIAN_POINT('',(0.,0.,0.));
#545=CARTESIAN_POINT('Origin',(0.75,3.25,2.25));
#546=CARTESIAN_POINT('',(0.75,3.25,2.25));
#547=CARTESIAN_POINT('',(-0.75,3.25,2.25));
#548=CARTESIAN_POINT('',(0.75,3.25,2.25));
#549=CARTESIAN_POINT('',(0.75,3.5,2.25));
#550=CARTESIAN_POINT('',(0.75,3.5,2.25));
#551=CARTESIAN_POINT('',(-0.75,3.5,2.25));
#552=CARTESIAN_POINT('',(0.75,3.5,2.25));
#553=CARTESIAN_POINT('',(-0.75,3.5,2.25));
#554=CARTESIAN_POINT('Origin',(0.75,1.08220643100543,3.03972340207928));
#555=CARTESIAN_POINT('',(0.75,0.890695320225689,3.20042030450091));
#556=CARTESIAN_POINT('',(0.75,1.08220643100543,3.03972340207928));
#557=CARTESIAN_POINT('',(0.75,0.89069532022569,3.20042030450091));
#558=CARTESIAN_POINT('',(-0.75,1.08220643100543,3.03972340207928));
#559=CARTESIAN_POINT('',(0.75,1.08220643100543,3.03972340207928));
#560=CARTESIAN_POINT('',(-0.75,0.890695320225689,3.20042030450091));
#561=CARTESIAN_POINT('',(-0.75,0.89069532022569,3.20042030450091));
#562=CARTESIAN_POINT('',(0.75,0.890695320225689,3.20042030450091));
#563=CARTESIAN_POINT('Origin',(0.75,0.,0.));
#564=CARTESIAN_POINT('',(0.75,-0.162266666169616,1.94554907434918));
#565=CARTESIAN_POINT('',(0.75,0.89069532022569,3.20042030450091));
#566=CARTESIAN_POINT('',(0.75,-0.25,1.70450372071672));
#567=CARTESIAN_POINT('Origin',(0.75,0.125,1.70450372071672));
#568=CARTESIAN_POINT('',(0.75,-0.25,0.125));
#569=CARTESIAN_POINT('',(0.75,-0.25,1.70450372071672));
#570=CARTESIAN_POINT('',(0.75,0.125,-0.25));
#571=CARTESIAN_POINT('Origin',(0.75,0.125,0.125));
#572=CARTESIAN_POINT('',(0.75,3.125,-0.25));
#573=CARTESIAN_POINT('',(0.75,3.125,-0.25));
#574=CARTESIAN_POINT('',(0.75,3.5,0.125));
#575=CARTESIAN_POINT('Origin',(0.75,3.125,0.125));
#576=CARTESIAN_POINT('',(0.75,3.5,2.25));
#577=CARTESIAN_POINT('',(0.75,3.25,0.125));
#578=CARTESIAN_POINT('',(0.75,3.25,2.25));
#579=CARTESIAN_POINT('',(0.75,3.125,0.));
#580=CARTESIAN_POINT('Origin',(0.75,3.125,0.125));
#581=CARTESIAN_POINT('',(0.75,0.125,0.));
#582=CARTESIAN_POINT('',(0.75,3.125,-1.00864185506044E-19));
#583=CARTESIAN_POINT('',(0.75,0.,0.125));
#584=CARTESIAN_POINT('Origin',(0.75,0.125,0.125));
#585=CARTESIAN_POINT('',(0.75,0.,1.70450372071672));
#586=CARTESIAN_POINT('',(0.75,0.,1.70450372071672));
#587=CARTESIAN_POINT('',(0.75,0.0292444446101278,1.78485217192754));
#588=CARTESIAN_POINT('Origin',(0.75,0.125,1.70450372071672));
#589=CARTESIAN_POINT('',(0.75,1.08220643100543,3.03972340207928));
#590=CARTESIAN_POINT('Origin',(0.75,3.25,-0.25));
#591=CARTESIAN_POINT('',(-0.75,0.125,-0.25));
#592=CARTESIAN_POINT('',(0.75,0.125,-0.25));
#593=CARTESIAN_POINT('',(-0.75,3.125,-0.25));
#594=CARTESIAN_POINT('',(-0.75,3.125,-0.25));
#595=CARTESIAN_POINT('',(0.75,3.125,-0.25));
#596=CARTESIAN_POINT('Origin',(0.75,3.5,2.25));
#597=CARTESIAN_POINT('',(-0.75,3.5,0.125));
#598=CARTESIAN_POINT('',(0.75,3.5,0.125));
#599=CARTESIAN_POINT('',(-0.75,3.5,2.25));
#600=CARTESIAN_POINT('',(0.,3.5,1.75));
#601=CARTESIAN_POINT('',(-3.06161699786838E-17,3.5,1.25));
#602=CARTESIAN_POINT('Origin',(0.,3.5,1.5));
#603=CARTESIAN_POINT('Origin',(0.,3.5,1.5));
#604=CARTESIAN_POINT('Origin',(0.75,0.89069532022569,3.20042030450091));
#605=CARTESIAN_POINT('',(-0.75,-0.162266666169616,1.94554907434918));
#606=CARTESIAN_POINT('',(-0.75,0.89069532022569,3.20042030450091));
#607=CARTESIAN_POINT('',(0.75,-0.162266666169617,1.94554907434918));
#608=CARTESIAN_POINT('Origin',(0.75,-0.25,1.75));
#609=CARTESIAN_POINT('',(-0.75,-0.25,1.70450372071672));
#610=CARTESIAN_POINT('',(0.75,-0.25,1.70450372071672));
#611=CARTESIAN_POINT('',(-0.75,-0.25,0.125));
#612=CARTESIAN_POINT('',(-0.75,-0.25,1.70450372071672));
#613=CARTESIAN_POINT('',(0.75,-0.25,0.125));
#614=CARTESIAN_POINT('Origin',(-0.75,0.,0.));
#615=CARTESIAN_POINT('Origin',(-0.75,0.125,1.70450372071672));
#616=CARTESIAN_POINT('',(-0.75,0.0292444446101278,1.78485217192754));
#617=CARTESIAN_POINT('',(-0.75,1.08220643100543,3.03972340207928));
#618=CARTESIAN_POINT('',(-0.75,0.,1.70450372071672));
#619=CARTESIAN_POINT('Origin',(-0.75,0.125,1.70450372071672));
#620=CARTESIAN_POINT('',(-0.75,0.,0.125));
#621=CARTESIAN_POINT('',(-0.75,0.,1.70450372071672));
#622=CARTESIAN_POINT('',(-0.75,0.125,0.));
#623=CARTESIAN_POINT('Origin',(-0.75,0.125,0.125));
#624=CARTESIAN_POINT('',(-0.75,3.125,0.));
#625=CARTESIAN_POINT('',(-0.75,3.125,-1.00864185506044E-19));
#626=CARTESIAN_POINT('',(-0.75,3.25,0.125));
#627=CARTESIAN_POINT('Origin',(-0.75,3.125,0.125));
#628=CARTESIAN_POINT('',(-0.75,3.25,2.25));
#629=CARTESIAN_POINT('Origin',(-0.75,3.125,0.125));
#630=CARTESIAN_POINT('Origin',(-0.75,0.125,0.125));
#631=CARTESIAN_POINT('Origin',(0.75,3.25,0.));
#632=CARTESIAN_POINT('',(0.75,0.125,0.));
#633=CARTESIAN_POINT('',(0.75,3.125,0.));
#634=CARTESIAN_POINT('Origin',(0.75,3.25,2.25));
#635=CARTESIAN_POINT('',(0.75,3.25,0.125));
#636=CARTESIAN_POINT('',(0.,3.25,1.75));
#637=CARTESIAN_POINT('',(-3.06161699786838E-17,3.25,1.25));
#638=CARTESIAN_POINT('Origin',(0.,3.25,1.5));
#639=CARTESIAN_POINT('Origin',(0.,3.25,1.5));
#640=CARTESIAN_POINT('Origin',(0.75,1.08220643100543,3.03972340207928));
#641=CARTESIAN_POINT('',(0.75,0.0292444446101278,1.78485217192754));
#642=CARTESIAN_POINT('Origin',(0.75,0.,1.75));
#643=CARTESIAN_POINT('',(0.75,0.,1.70450372071672));
#644=CARTESIAN_POINT('',(0.75,0.,0.125));
#645=CARTESIAN_POINT('Origin',(0.75,0.125,1.70450372071672));
#646=CARTESIAN_POINT('Origin',(0.75,0.125,0.125));
#647=CARTESIAN_POINT('Origin',(0.75,3.125,0.125));
#648=CARTESIAN_POINT('Origin',(0.75,0.125,1.70450372071672));
#649=CARTESIAN_POINT('Origin',(0.75,0.125,0.125));
#650=CARTESIAN_POINT('Origin',(0.75,3.125,0.125));
#651=CARTESIAN_POINT('Origin',(0.,-0.25003937007874,1.5));
#652=CARTESIAN_POINT('',(-3.06161699786838E-17,-0.25003937007874,1.25));
#653=UNCERTAINTY_MEASURE_WITH_UNIT(LENGTH_MEASURE(0.000393700787401575),
#658,'DISTANCE_ACCURACY_VALUE',
'Maximum model space distance between geometric entities at asserted c
onnectivities');
#654=UNCERTAINTY_MEASURE_WITH_UNIT(LENGTH_MEASURE(0.000393700787401575),
#658,'DISTANCE_ACCURACY_VALUE',
'Maximum model space distance between geometric entities at asserted c
onnectivities');
#655=(
GEOMETRIC_REPRESENTATION_CONTEXT(3)
GLOBAL_UNCERTAINTY_ASSIGNED_CONTEXT((#653))
GLOBAL_UNIT_ASSIGNED_CONTEXT((#658,#663,#662))
REPRESENTATION_CONTEXT('','3D')
);
#656=(
GEOMETRIC_REPRESENTATION_CONTEXT(3)
GLOBAL_UNCERTAINTY_ASSIGNED_CONTEXT((#654))
GLOBAL_UNIT_ASSIGNED_CONTEXT((#658,#663,#662))
REPRESENTATION_CONTEXT('','3D')
);
#657=DIMENSIONAL_EXPONENTS(1.,0.,0.,0.,0.,0.,0.);
#658=(
CONVERSION_BASED_UNIT('inch',#661)
LENGTH_UNIT()
NAMED_UNIT(#657)
);
#659=(
LENGTH_UNIT()
NAMED_UNIT(*)
SI_UNIT(.MILLI.,.METRE.)
);
#660=(
LENGTH_UNIT()
NAMED_UNIT(*)
SI_UNIT(.CENTI.,.METRE.)
);
#661=LENGTH_MEASURE_WITH_UNIT(LENGTH_MEASURE(25.4),#659);
#662=(
NAMED_UNIT(*)
SI_UNIT($,.STERADIAN.)
SOLID_ANGLE_UNIT()
);
#663=(
NAMED_UNIT(*)
PLANE_ANGLE_UNIT()
SI_UNIT($,.RADIAN.)
);
#664=SHAPE_DEFINITION_REPRESENTATION(#665,#666);
#665=PRODUCT_DEFINITION_SHAPE('',$,#668);
#666=SHAPE_REPRESENTATION('',(#399),#655);
#667=PRODUCT_DEFINITION_CONTEXT('part definition',#672,'design');
#668=PRODUCT_DEFINITION('bracket','bracket',#669,#667);
#669=PRODUCT_DEFINITION_FORMATION('',$,#674);
#670=PRODUCT_RELATED_PRODUCT_CATEGORY('bracket','bracket',(#674));
#671=APPLICATION_PROTOCOL_DEFINITION('international standard',
'automotive_design',2009,#672);
#672=APPLICATION_CONTEXT(
'Core Data for Automotive Mechanical Design Process');
#673=PRODUCT_CONTEXT('part definition',#672,'mechanical');
#674=PRODUCT('bracket','bracket',$,(#673));
#675=PRESENTATION_STYLE_ASSIGNMENT((#676));
#676=SURFACE_STYLE_USAGE(.BOTH.,#677);
#677=SURFACE_SIDE_STYLE('',(#678));
#678=SURFACE_STYLE_FILL_AREA(#679);
#679=FILL_AREA_STYLE('',(#680));
#680=FILL_AREA_STYLE_COLOUR('',#681);
#681=COLOUR_RGB('',0.501960784313725,0.,1.);
ENDSEC;
END-ISO-10303-21;
