ISO-10303-21;
HEADER;
/* Generated by software containing ST-Developer
 * from STEP Tools, Inc. (www.steptools.com) 
 */

FILE_DESCRIPTION(
/* description */ (''),
/* implementation_level */ '2;1');

FILE_NAME(
/* name */ 
'C:\\Users\\cecilia\\Documents\\a-docencia\\2020\\asistida\\teoricos\\
fwdpiezasdesolidworks\\crank-shaft.stp',
/* time_stamp */ '2021-09-28T11:30:04-03:00',
/* author */ ('cecilia'),
/* organization */ (''),
/* preprocessor_version */ 'ST-DEVELOPER v17',
/* originating_system */ 'Autodesk Inventor 2019',
/* authorisation */ '');

FILE_SCHEMA (('AUTOMOTIVE_DESIGN { 1 0 10303 214 3 1 1 }'));
ENDSEC;

DATA;
#10=MECHANICAL_DESIGN_GEOMETRIC_PRESENTATION_REPRESENTATION('',(#13),#479);
#11=SHAPE_REPRESENTATION_RELATIONSHIP('SRR','None',#489,#12);
#12=ADVANCED_BREP_SHAPE_REPRESENTATION('',(#14),#478);
#13=STYLED_ITEM('',(#498),#14);
#14=MANIFOLD_SOLID_BREP('Solid1',#229);
#15=CONICAL_SURFACE('',#276,0.218749999999999,0.785398163397456);
#16=(
BOUNDED_CURVE()
B_SPLINE_CURVE(2,(#467,#468,#469),.UNSPECIFIED.,.F.,.F.)
B_SPLINE_CURVE_WITH_KNOTS((3,3),(2.04217013825234,2.25704122520056),
 .UNSPECIFIED.)
CURVE()
GEOMETRIC_REPRESENTATION_ITEM()
RATIONAL_B_SPLINE_CURVE((1.71229557844128,1.6605314151331,1.58998875140609))
REPRESENTATION_ITEM('')
);
#17=(
BOUNDED_CURVE()
B_SPLINE_CURVE(2,(#471,#472,#473),.UNSPECIFIED.,.F.,.F.)
B_SPLINE_CURVE_WITH_KNOTS((3,3),(0.642686671516652,0.857557758464888),
 .UNSPECIFIED.)
CURVE()
GEOMETRIC_REPRESENTATION_ITEM()
RATIONAL_B_SPLINE_CURVE((1.58998875140608,1.6605314151331,1.71229557844128))
REPRESENTATION_ITEM('')
);
#18=(
BOUNDED_SURFACE()
B_SPLINE_SURFACE(2,2,((#436,#437,#438,#439,#440,#441,#442,#443,#444),(#445,
#446,#447,#448,#449,#450,#451,#452,#453),(#454,#455,#456,#457,#458,#459,
#460,#461,#462)),.UNSPECIFIED.,.F.,.T.,.F.)
B_SPLINE_SURFACE_WITH_KNOTS((3,3),(3,2,2,2,3),(-0.84106867056793,0.),(-3.14159265358979,
-1.5707963267949,0.,1.5707963267949,3.14159265358979),.UNSPECIFIED.)
GEOMETRIC_REPRESENTATION_ITEM()
RATIONAL_B_SPLINE_SURFACE(((1.,0.707106781186548,1.,0.707106781186548,1.,
0.707106781186548,1.,0.707106781186548,1.),(0.912870929175282,0.645497224367906,
0.912870929175282,0.645497224367906,0.912870929175282,0.645497224367906,
0.912870929175282,0.645497224367906,0.912870929175282),(1.,0.707106781186548,
1.,0.707106781186548,1.,0.707106781186548,1.,0.707106781186548,1.)))
REPRESENTATION_ITEM('')
SURFACE()
);
#19=TOROIDAL_SURFACE('',#269,0.4375,0.1875);
#20=B_SPLINE_CURVE_WITH_KNOTS('',3,(#383,#384,#385,#386,#387,#388,#389,
#390,#391,#392,#393,#394,#395,#396,#397,#398,#399,#400,#401,#402,#403,#404,
#405,#406,#407,#408),.UNSPECIFIED.,.F.,.F.,(4,2,2,2,2,2,2,2,2,2,2,2,4),
(-0.538796602074816,-0.493897072784076,-0.448997543493336,-0.40409763910494,
-0.359197734716544,-0.314297830328148,-0.269397925939752,-0.224498396649012,
-0.179598867358272,-0.134699338067532,-0.0897998087767917,-0.0448999043883959,
0.),.UNSPECIFIED.);
#21=B_SPLINE_CURVE_WITH_KNOTS('',3,(#409,#410,#411,#412,#413,#414,#415,
#416,#417,#418),.UNSPECIFIED.,.F.,.F.,(4,2,2,2,4),(0.,0.0448999043883959,
0.0897998087767917,0.134699338067532,0.179598867358272),.UNSPECIFIED.);
#22=FACE_BOUND('',#47,.T.);
#23=FACE_BOUND('',#49,.T.);
#24=FACE_BOUND('',#52,.T.);
#25=PLANE('',#255);
#26=PLANE('',#257);
#27=PLANE('',#265);
#28=PLANE('',#268);
#29=PLANE('',#274);
#30=PLANE('',#275);
#31=FACE_OUTER_BOUND('',#44,.T.);
#32=FACE_OUTER_BOUND('',#45,.T.);
#33=FACE_OUTER_BOUND('',#46,.T.);
#34=FACE_OUTER_BOUND('',#48,.T.);
#35=FACE_OUTER_BOUND('',#50,.T.);
#36=FACE_OUTER_BOUND('',#51,.T.);
#37=FACE_OUTER_BOUND('',#53,.T.);
#38=FACE_OUTER_BOUND('',#54,.T.);
#39=FACE_OUTER_BOUND('',#55,.T.);
#40=FACE_OUTER_BOUND('',#56,.T.);
#41=FACE_OUTER_BOUND('',#57,.T.);
#42=FACE_OUTER_BOUND('',#58,.T.);
#43=FACE_OUTER_BOUND('',#59,.T.);
#44=EDGE_LOOP('',(#150,#151,#152,#153,#154,#155,#156,#157,#158));
#45=EDGE_LOOP('',(#159,#160));
#46=EDGE_LOOP('',(#161));
#47=EDGE_LOOP('',(#162,#163));
#48=EDGE_LOOP('',(#164,#165,#166,#167,#168));
#49=EDGE_LOOP('',(#169,#170));
#50=EDGE_LOOP('',(#171,#172,#173,#174));
#51=EDGE_LOOP('',(#175,#176,#177,#178));
#52=EDGE_LOOP('',(#179,#180));
#53=EDGE_LOOP('',(#181,#182));
#54=EDGE_LOOP('',(#183,#184,#185,#186,#187));
#55=EDGE_LOOP('',(#188,#189,#190,#191,#192));
#56=EDGE_LOOP('',(#193,#194,#195,#196,#197,#198));
#57=EDGE_LOOP('',(#199,#200,#201,#202,#203,#204));
#58=EDGE_LOOP('',(#205,#206));
#59=EDGE_LOOP('',(#207,#208,#209,#210,#211));
#60=LINE('',#352,#71);
#61=LINE('',#356,#72);
#62=LINE('',#360,#73);
#63=LINE('',#366,#74);
#64=LINE('',#374,#75);
#65=LINE('',#377,#76);
#66=LINE('',#421,#77);
#67=LINE('',#424,#78);
#68=LINE('',#426,#79);
#69=LINE('',#465,#80);
#70=LINE('',#470,#81);
#71=VECTOR('',#283,0.25);
#72=VECTOR('',#286,0.21875);
#73=VECTOR('',#289,0.21875);
#74=VECTOR('',#296,0.225346954716497);
#75=VECTOR('',#305,0.330718913883074);
#76=VECTOR('',#308,0.375);
#77=VECTOR('',#315,0.5);
#78=VECTOR('',#318,0.5);
#79=VECTOR('',#321,0.330718913883074);
#80=VECTOR('',#338,0.046875);
#81=VECTOR('',#341,0.330718913883074);
#82=CIRCLE('',#250,0.25);
#83=CIRCLE('',#251,0.25);
#84=CIRCLE('',#252,0.25);
#85=CIRCLE('',#253,0.25);
#86=CIRCLE('',#254,0.25);
#87=CIRCLE('',#256,0.218749999999999);
#88=CIRCLE('',#258,0.375);
#89=CIRCLE('',#259,0.25);
#90=CIRCLE('',#261,0.375);
#91=CIRCLE('',#262,0.375);
#92=CIRCLE('',#264,0.25);
#93=CIRCLE('',#266,0.046875);
#94=CIRCLE('',#267,0.046875);
#95=CIRCLE('',#270,0.3125);
#96=CIRCLE('',#271,0.1875);
#97=CIRCLE('',#272,0.1875);
#98=VERTEX_POINT('',#348);
#99=VERTEX_POINT('',#349);
#100=VERTEX_POINT('',#351);
#101=VERTEX_POINT('',#353);
#102=VERTEX_POINT('',#355);
#103=VERTEX_POINT('',#357);
#104=VERTEX_POINT('',#359);
#105=VERTEX_POINT('',#364);
#106=VERTEX_POINT('',#365);
#107=VERTEX_POINT('',#369);
#108=VERTEX_POINT('',#371);
#109=VERTEX_POINT('',#372);
#110=VERTEX_POINT('',#376);
#111=VERTEX_POINT('',#378);
#112=VERTEX_POINT('',#381);
#113=VERTEX_POINT('',#382);
#114=VERTEX_POINT('',#420);
#115=VERTEX_POINT('',#422);
#116=VERTEX_POINT('',#427);
#117=VERTEX_POINT('',#428);
#118=VERTEX_POINT('',#433);
#119=EDGE_CURVE('',#98,#99,#82,.F.);
#120=EDGE_CURVE('',#99,#100,#60,.T.);
#121=EDGE_CURVE('',#100,#101,#83,.F.);
#122=EDGE_CURVE('',#102,#101,#61,.T.);
#123=EDGE_CURVE('',#103,#102,#84,.T.);
#124=EDGE_CURVE('',#103,#104,#62,.T.);
#125=EDGE_CURVE('',#104,#100,#85,.F.);
#126=EDGE_CURVE('',#99,#98,#86,.F.);
#127=EDGE_CURVE('',#105,#106,#63,.T.);
#128=EDGE_CURVE('',#106,#105,#87,.T.);
#129=EDGE_CURVE('',#107,#107,#88,.T.);
#130=EDGE_CURVE('',#108,#109,#89,.T.);
#131=EDGE_CURVE('',#109,#108,#64,.T.);
#132=EDGE_CURVE('',#107,#110,#65,.T.);
#133=EDGE_CURVE('',#110,#111,#90,.T.);
#134=EDGE_CURVE('',#111,#110,#91,.T.);
#135=EDGE_CURVE('',#112,#113,#20,.T.);
#136=EDGE_CURVE('',#113,#112,#21,.T.);
#137=EDGE_CURVE('',#114,#108,#66,.T.);
#138=EDGE_CURVE('',#114,#115,#92,.T.);
#139=EDGE_CURVE('',#115,#109,#67,.T.);
#140=EDGE_CURVE('',#115,#114,#68,.T.);
#141=EDGE_CURVE('',#116,#117,#93,.T.);
#142=EDGE_CURVE('',#117,#116,#94,.T.);
#143=EDGE_CURVE('',#118,#118,#95,.T.);
#144=EDGE_CURVE('',#118,#99,#96,.T.);
#145=EDGE_CURVE('',#110,#118,#97,.T.);
#146=EDGE_CURVE('',#113,#117,#69,.T.);
#147=EDGE_CURVE('',#105,#104,#16,.T.);
#148=EDGE_CURVE('',#103,#102,#70,.T.);
#149=EDGE_CURVE('',#101,#106,#17,.T.);
#150=ORIENTED_EDGE('',*,*,#119,.T.);
#151=ORIENTED_EDGE('',*,*,#120,.T.);
#152=ORIENTED_EDGE('',*,*,#121,.T.);
#153=ORIENTED_EDGE('',*,*,#122,.F.);
#154=ORIENTED_EDGE('',*,*,#123,.F.);
#155=ORIENTED_EDGE('',*,*,#124,.T.);
#156=ORIENTED_EDGE('',*,*,#125,.T.);
#157=ORIENTED_EDGE('',*,*,#120,.F.);
#158=ORIENTED_EDGE('',*,*,#126,.T.);
#159=ORIENTED_EDGE('',*,*,#127,.T.);
#160=ORIENTED_EDGE('',*,*,#128,.T.);
#161=ORIENTED_EDGE('',*,*,#129,.F.);
#162=ORIENTED_EDGE('',*,*,#130,.T.);
#163=ORIENTED_EDGE('',*,*,#131,.T.);
#164=ORIENTED_EDGE('',*,*,#129,.T.);
#165=ORIENTED_EDGE('',*,*,#132,.T.);
#166=ORIENTED_EDGE('',*,*,#133,.T.);
#167=ORIENTED_EDGE('',*,*,#134,.T.);
#168=ORIENTED_EDGE('',*,*,#132,.F.);
#169=ORIENTED_EDGE('',*,*,#135,.T.);
#170=ORIENTED_EDGE('',*,*,#136,.T.);
#171=ORIENTED_EDGE('',*,*,#130,.F.);
#172=ORIENTED_EDGE('',*,*,#137,.F.);
#173=ORIENTED_EDGE('',*,*,#138,.T.);
#174=ORIENTED_EDGE('',*,*,#139,.T.);
#175=ORIENTED_EDGE('',*,*,#131,.F.);
#176=ORIENTED_EDGE('',*,*,#139,.F.);
#177=ORIENTED_EDGE('',*,*,#140,.T.);
#178=ORIENTED_EDGE('',*,*,#137,.T.);
#179=ORIENTED_EDGE('',*,*,#141,.F.);
#180=ORIENTED_EDGE('',*,*,#142,.F.);
#181=ORIENTED_EDGE('',*,*,#138,.F.);
#182=ORIENTED_EDGE('',*,*,#140,.F.);
#183=ORIENTED_EDGE('',*,*,#143,.T.);
#184=ORIENTED_EDGE('',*,*,#144,.T.);
#185=ORIENTED_EDGE('',*,*,#119,.F.);
#186=ORIENTED_EDGE('',*,*,#126,.F.);
#187=ORIENTED_EDGE('',*,*,#144,.F.);
#188=ORIENTED_EDGE('',*,*,#134,.F.);
#189=ORIENTED_EDGE('',*,*,#133,.F.);
#190=ORIENTED_EDGE('',*,*,#145,.T.);
#191=ORIENTED_EDGE('',*,*,#143,.F.);
#192=ORIENTED_EDGE('',*,*,#145,.F.);
#193=ORIENTED_EDGE('',*,*,#135,.F.);
#194=ORIENTED_EDGE('',*,*,#136,.F.);
#195=ORIENTED_EDGE('',*,*,#146,.T.);
#196=ORIENTED_EDGE('',*,*,#142,.T.);
#197=ORIENTED_EDGE('',*,*,#141,.T.);
#198=ORIENTED_EDGE('',*,*,#146,.F.);
#199=ORIENTED_EDGE('',*,*,#127,.F.);
#200=ORIENTED_EDGE('',*,*,#147,.T.);
#201=ORIENTED_EDGE('',*,*,#124,.F.);
#202=ORIENTED_EDGE('',*,*,#148,.T.);
#203=ORIENTED_EDGE('',*,*,#122,.T.);
#204=ORIENTED_EDGE('',*,*,#149,.T.);
#205=ORIENTED_EDGE('',*,*,#123,.T.);
#206=ORIENTED_EDGE('',*,*,#148,.F.);
#207=ORIENTED_EDGE('',*,*,#149,.F.);
#208=ORIENTED_EDGE('',*,*,#121,.F.);
#209=ORIENTED_EDGE('',*,*,#125,.F.);
#210=ORIENTED_EDGE('',*,*,#147,.F.);
#211=ORIENTED_EDGE('',*,*,#128,.F.);
#212=CYLINDRICAL_SURFACE('',#249,0.25);
#213=CYLINDRICAL_SURFACE('',#260,0.375);
#214=CYLINDRICAL_SURFACE('',#263,0.25);
#215=CYLINDRICAL_SURFACE('',#273,0.046875);
#216=ADVANCED_FACE('',(#31),#212,.T.);
#217=ADVANCED_FACE('',(#32),#25,.T.);
#218=ADVANCED_FACE('',(#33,#22),#26,.F.);
#219=ADVANCED_FACE('',(#34,#23),#213,.T.);
#220=ADVANCED_FACE('',(#35),#214,.F.);
#221=ADVANCED_FACE('',(#36,#24),#27,.T.);
#222=ADVANCED_FACE('',(#37),#28,.F.);
#223=ADVANCED_FACE('',(#38),#19,.F.);
#224=ADVANCED_FACE('',(#39),#18,.F.);
#225=ADVANCED_FACE('',(#40),#215,.F.);
#226=ADVANCED_FACE('',(#41),#29,.T.);
#227=ADVANCED_FACE('',(#42),#30,.T.);
#228=ADVANCED_FACE('',(#43),#15,.T.);
#229=CLOSED_SHELL('',(#216,#217,#218,#219,#220,#221,#222,#223,#224,#225,
#226,#227,#228));
#230=DERIVED_UNIT_ELEMENT(#232,1.);
#231=DERIVED_UNIT_ELEMENT(#483,3.);
#232=(
MASS_UNIT()
NAMED_UNIT(*)
SI_UNIT($,.GRAM.)
);
#233=DERIVED_UNIT((#230,#231));
#234=MEASURE_REPRESENTATION_ITEM('density measure',
POSITIVE_RATIO_MEASURE(1.),#233);
#235=PROPERTY_DEFINITION_REPRESENTATION(#240,#237);
#236=PROPERTY_DEFINITION_REPRESENTATION(#241,#238);
#237=REPRESENTATION('material name',(#239),#478);
#238=REPRESENTATION('density',(#234),#478);
#239=DESCRIPTIVE_REPRESENTATION_ITEM('Generic','Generic');
#240=PROPERTY_DEFINITION('material property','material name',#491);
#241=PROPERTY_DEFINITION('material property','density of part',#491);
#242=DATE_TIME_ROLE('creation_date');
#243=APPLIED_DATE_AND_TIME_ASSIGNMENT(#244,#242,(#491));
#244=DATE_AND_TIME(#245,#246);
#245=CALENDAR_DATE(1996,6,8);
#246=LOCAL_TIME(18,49,37.,#247);
#247=COORDINATED_UNIVERSAL_TIME_OFFSET(0,0,.BEHIND.);
#248=AXIS2_PLACEMENT_3D('placement',#346,#277,#278);
#249=AXIS2_PLACEMENT_3D('',#347,#279,#280);
#250=AXIS2_PLACEMENT_3D('',#350,#281,#282);
#251=AXIS2_PLACEMENT_3D('',#354,#284,#285);
#252=AXIS2_PLACEMENT_3D('',#358,#287,#288);
#253=AXIS2_PLACEMENT_3D('',#361,#290,#291);
#254=AXIS2_PLACEMENT_3D('',#362,#292,#293);
#255=AXIS2_PLACEMENT_3D('',#363,#294,#295);
#256=AXIS2_PLACEMENT_3D('',#367,#297,#298);
#257=AXIS2_PLACEMENT_3D('',#368,#299,#300);
#258=AXIS2_PLACEMENT_3D('',#370,#301,#302);
#259=AXIS2_PLACEMENT_3D('',#373,#303,#304);
#260=AXIS2_PLACEMENT_3D('',#375,#306,#307);
#261=AXIS2_PLACEMENT_3D('',#379,#309,#310);
#262=AXIS2_PLACEMENT_3D('',#380,#311,#312);
#263=AXIS2_PLACEMENT_3D('',#419,#313,#314);
#264=AXIS2_PLACEMENT_3D('',#423,#316,#317);
#265=AXIS2_PLACEMENT_3D('',#425,#319,#320);
#266=AXIS2_PLACEMENT_3D('',#429,#322,#323);
#267=AXIS2_PLACEMENT_3D('',#430,#324,#325);
#268=AXIS2_PLACEMENT_3D('',#431,#326,#327);
#269=AXIS2_PLACEMENT_3D('',#432,#328,#329);
#270=AXIS2_PLACEMENT_3D('',#434,#330,#331);
#271=AXIS2_PLACEMENT_3D('',#435,#332,#333);
#272=AXIS2_PLACEMENT_3D('',#463,#334,#335);
#273=AXIS2_PLACEMENT_3D('',#464,#336,#337);
#274=AXIS2_PLACEMENT_3D('',#466,#339,#340);
#275=AXIS2_PLACEMENT_3D('',#474,#342,#343);
#276=AXIS2_PLACEMENT_3D('',#475,#344,#345);
#277=DIRECTION('axis',(0.,0.,1.));
#278=DIRECTION('refdir',(1.,0.,0.));
#279=DIRECTION('center_axis',(0.,-1.,0.));
#280=DIRECTION('ref_axis',(0.,0.,-1.));
#281=DIRECTION('center_axis',(0.,-1.,0.));
#282=DIRECTION('ref_axis',(0.,0.,-1.));
#283=DIRECTION('',(0.,1.,0.));
#284=DIRECTION('center_axis',(0.,1.,0.));
#285=DIRECTION('ref_axis',(0.,0.,1.));
#286=DIRECTION('',(0.,1.,0.));
#287=DIRECTION('center_axis',(0.,1.,0.));
#288=DIRECTION('ref_axis',(0.,0.,1.));
#289=DIRECTION('',(0.,1.,0.));
#290=DIRECTION('center_axis',(0.,1.,0.));
#291=DIRECTION('ref_axis',(0.,0.,1.));
#292=DIRECTION('center_axis',(0.,-1.,0.));
#293=DIRECTION('ref_axis',(0.,0.,-1.));
#294=DIRECTION('center_axis',(0.,1.,0.));
#295=DIRECTION('ref_axis',(0.,0.,1.));
#296=DIRECTION('',(2.90948470683471E-16,0.,-1.));
#297=DIRECTION('center_axis',(0.,1.,0.));
#298=DIRECTION('ref_axis',(0.,0.,1.));
#299=DIRECTION('center_axis',(0.,1.,0.));
#300=DIRECTION('ref_axis',(0.,0.,1.));
#301=DIRECTION('center_axis',(0.,1.,0.));
#302=DIRECTION('ref_axis',(0.,0.,1.));
#303=DIRECTION('center_axis',(0.,1.,0.));
#304=DIRECTION('ref_axis',(0.,0.,1.));
#305=DIRECTION('',(1.98247965555193E-16,0.,-1.));
#306=DIRECTION('center_axis',(0.,-1.,0.));
#307=DIRECTION('ref_axis',(0.,0.,-1.));
#308=DIRECTION('',(0.,1.,0.));
#309=DIRECTION('center_axis',(0.,-1.,0.));
#310=DIRECTION('ref_axis',(0.,0.,-1.));
#311=DIRECTION('center_axis',(0.,-1.,0.));
#312=DIRECTION('ref_axis',(0.,0.,-1.));
#313=DIRECTION('center_axis',(0.,-1.,0.));
#314=DIRECTION('ref_axis',(-1.,0.,1.83697019872103E-16));
#315=DIRECTION('',(0.,-1.,0.));
#316=DIRECTION('center_axis',(0.,1.,0.));
#317=DIRECTION('ref_axis',(0.,0.,1.));
#318=DIRECTION('',(0.,-1.,0.));
#319=DIRECTION('center_axis',(-1.,0.,-2.06508297453326E-16));
#320=DIRECTION('ref_axis',(-2.06508297453326E-16,0.,1.));
#321=DIRECTION('',(1.98247965555193E-16,0.,-1.));
#322=DIRECTION('center_axis',(-1.,0.,-2.06508297453326E-16));
#323=DIRECTION('ref_axis',(-2.06508297453326E-16,0.,1.));
#324=DIRECTION('center_axis',(-1.,0.,-2.06508297453326E-16));
#325=DIRECTION('ref_axis',(-2.06508297453326E-16,0.,1.));
#326=DIRECTION('center_axis',(0.,1.,0.));
#327=DIRECTION('ref_axis',(0.,0.,1.));
#328=DIRECTION('center_axis',(0.,-1.,0.));
#329=DIRECTION('ref_axis',(0.,0.,-1.));
#330=DIRECTION('center_axis',(0.,1.,0.));
#331=DIRECTION('ref_axis',(0.,0.,1.));
#332=DIRECTION('center_axis',(1.,0.,1.22464679914735E-16));
#333=DIRECTION('ref_axis',(-1.22464679914735E-16,0.,1.));
#334=DIRECTION('center_axis',(-1.,0.,-1.22464679914735E-16));
#335=DIRECTION('ref_axis',(-1.22464679914735E-16,0.,1.));
#336=DIRECTION('center_axis',(-1.,0.,-2.06508297453326E-16));
#337=DIRECTION('ref_axis',(-2.06508297453326E-16,0.,1.));
#338=DIRECTION('',(-1.,0.,-2.06508297453326E-16));
#339=DIRECTION('center_axis',(1.,0.,2.06508297453326E-16));
#340=DIRECTION('ref_axis',(2.06508297453326E-16,0.,-1.));
#341=DIRECTION('',(1.98247965555193E-16,0.,-1.));
#342=DIRECTION('center_axis',(0.,1.,0.));
#343=DIRECTION('ref_axis',(0.,0.,1.));
#344=DIRECTION('center_axis',(0.,-1.,0.));
#345=DIRECTION('ref_axis',(-1.,0.,-1.83758917935762E-15));
#346=CARTESIAN_POINT('',(0.,0.,0.));
#347=CARTESIAN_POINT('Origin',(0.,1.5,0.));
#348=CARTESIAN_POINT('',(0.,0.801776695296637,-0.25));
#349=CARTESIAN_POINT('',(-3.06161699786838E-17,0.801776695296637,0.25));
#350=CARTESIAN_POINT('Origin',(0.,0.801776695296637,0.));
#351=CARTESIAN_POINT('',(-3.06161699786838E-17,1.46875,0.25));
#352=CARTESIAN_POINT('',(-3.06161699786838E-17,1.5,0.25));
#353=CARTESIAN_POINT('',(0.1875,1.46875,-0.165359456941537));
#354=CARTESIAN_POINT('Origin',(0.,1.46875,0.));
#355=CARTESIAN_POINT('',(0.1875,1.25,-0.165359456941537));
#356=CARTESIAN_POINT('',(0.1875,1.25,-0.165359456941537));
#357=CARTESIAN_POINT('',(0.1875,1.25,0.165359456941537));
#358=CARTESIAN_POINT('Origin',(0.,1.25,0.));
#359=CARTESIAN_POINT('',(0.1875,1.46875,0.165359456941537));
#360=CARTESIAN_POINT('',(0.1875,1.25,0.165359456941537));
#361=CARTESIAN_POINT('Origin',(0.,1.46875,0.));
#362=CARTESIAN_POINT('Origin',(0.,0.801776695296637,0.));
#363=CARTESIAN_POINT('Origin',(0.,1.5,0.));
#364=CARTESIAN_POINT('',(0.1875,1.5,0.112673477358249));
#365=CARTESIAN_POINT('',(0.1875,1.5,-0.112673477358249));
#366=CARTESIAN_POINT('',(0.1875,1.5,0.112673477358249));
#367=CARTESIAN_POINT('Origin',(0.,1.5,0.));
#368=CARTESIAN_POINT('Origin',(0.,0.,0.));
#369=CARTESIAN_POINT('',(0.,0.,0.375));
#370=CARTESIAN_POINT('Origin',(0.,0.,0.));
#371=CARTESIAN_POINT('',(0.1875,0.,-0.165359456941537));
#372=CARTESIAN_POINT('',(0.1875,0.,0.165359456941537));
#373=CARTESIAN_POINT('Origin',(0.,0.,0.));
#374=CARTESIAN_POINT('',(0.1875,0.,0.165359456941537));
#375=CARTESIAN_POINT('Origin',(0.,0.625,0.));
#376=CARTESIAN_POINT('',(-4.59242549680257E-17,0.522268198109163,0.375));
#377=CARTESIAN_POINT('',(-4.59242549680257E-17,0.625,0.375));
#378=CARTESIAN_POINT('',(0.,0.522268198109163,-0.375));
#379=CARTESIAN_POINT('Origin',(0.,0.522268198109163,0.));
#380=CARTESIAN_POINT('Origin',(0.,0.522268198109163,0.));
#381=CARTESIAN_POINT('',(0.375,0.203125,8.1864143249782E-17));
#382=CARTESIAN_POINT('',(0.372058778118458,0.25,-0.0468749999999999));
#383=CARTESIAN_POINT('Ctrl Pts',(0.375,0.203125,9.56146797782492E-17));
#384=CARTESIAN_POINT('Ctrl Pts',(0.375,0.203125,0.00589232667857491));
#385=CARTESIAN_POINT('Ctrl Pts',(0.37484693394707,0.204303843663817,0.0121732196511856));
#386=CARTESIAN_POINT('Ctrl Pts',(0.374293669921212,0.209089534971908,0.023720451599679));
#387=CARTESIAN_POINT('Ctrl Pts',(0.373901275806023,0.212696043121648,0.0289873038578867));
#388=CARTESIAN_POINT('Ctrl Pts',(0.373163289103982,0.22101273088142,0.0373039916176591));
#389=CARTESIAN_POINT('Ctrl Pts',(0.372769548460848,0.226279568037005,0.0409104725511205));
#390=CARTESIAN_POINT('Ctrl Pts',(0.372213198982054,0.237826748847799,0.0456961438960421));
#391=CARTESIAN_POINT('Ctrl Pts',(0.372058778118458,0.244107624096011,0.0468750000000001));
#392=CARTESIAN_POINT('Ctrl Pts',(0.372058778118458,0.255892375903989,0.0468750000000001));
#393=CARTESIAN_POINT('Ctrl Pts',(0.372213198982054,0.262173251152201,0.0456961438960421));
#394=CARTESIAN_POINT('Ctrl Pts',(0.372769548460848,0.273720431962995,0.0409104725511205));
#395=CARTESIAN_POINT('Ctrl Pts',(0.373163289103982,0.27898726911858,0.0373039916176591));
#396=CARTESIAN_POINT('Ctrl Pts',(0.373901275806023,0.287303956878352,0.0289873038578867));
#397=CARTESIAN_POINT('Ctrl Pts',(0.374293669921212,0.290910465028092,0.023720451599679));
#398=CARTESIAN_POINT('Ctrl Pts',(0.37484693394707,0.295696156336183,0.0121732196511855));
#399=CARTESIAN_POINT('Ctrl Pts',(0.375,0.296875,0.00589232667857489));
#400=CARTESIAN_POINT('Ctrl Pts',(0.375,0.296875,-0.00589232667857473));
#401=CARTESIAN_POINT('Ctrl Pts',(0.37484693394707,0.295696156336183,-0.0121732196511854));
#402=CARTESIAN_POINT('Ctrl Pts',(0.374293669921212,0.290910465028092,-0.0237204515996789));
#403=CARTESIAN_POINT('Ctrl Pts',(0.373901275806023,0.287303956878352,-0.0289873038578866));
#404=CARTESIAN_POINT('Ctrl Pts',(0.373163289103982,0.27898726911858,-0.0373039916176589));
#405=CARTESIAN_POINT('Ctrl Pts',(0.372769548460848,0.273720431962995,-0.0409104725511203));
#406=CARTESIAN_POINT('Ctrl Pts',(0.372213198982054,0.262173251152201,-0.0456961438960419));
#407=CARTESIAN_POINT('Ctrl Pts',(0.372058778118458,0.255892375903989,-0.0468749999999999));
#408=CARTESIAN_POINT('Ctrl Pts',(0.372058778118458,0.25,-0.0468749999999999));
#409=CARTESIAN_POINT('Ctrl Pts',(0.372058778118458,0.25,-0.0468749999999999));
#410=CARTESIAN_POINT('Ctrl Pts',(0.372058778118458,0.244107624096011,-0.0468749999999999));
#411=CARTESIAN_POINT('Ctrl Pts',(0.372213198982054,0.237826748847799,-0.0456961438960419));
#412=CARTESIAN_POINT('Ctrl Pts',(0.372769548460848,0.226279568037005,-0.0409104725511203));
#413=CARTESIAN_POINT('Ctrl Pts',(0.373163289103982,0.22101273088142,-0.0373039916176589));
#414=CARTESIAN_POINT('Ctrl Pts',(0.373901275806023,0.212696043121648,-0.0289873038578866));
#415=CARTESIAN_POINT('Ctrl Pts',(0.374293669921212,0.209089534971908,-0.0237204515996788));
#416=CARTESIAN_POINT('Ctrl Pts',(0.37484693394707,0.204303843663817,-0.0121732196511854));
#417=CARTESIAN_POINT('Ctrl Pts',(0.375,0.203125,-0.00589232667857472));
#418=CARTESIAN_POINT('Ctrl Pts',(0.375,0.203125,8.332136380676E-17));
#419=CARTESIAN_POINT('Origin',(0.,0.5,0.));
#420=CARTESIAN_POINT('',(0.1875,0.5,-0.165359456941537));
#421=CARTESIAN_POINT('',(0.1875,0.5,-0.165359456941537));
#422=CARTESIAN_POINT('',(0.1875,0.5,0.165359456941537));
#423=CARTESIAN_POINT('Origin',(0.,0.5,0.));
#424=CARTESIAN_POINT('',(0.1875,0.5,0.165359456941537));
#425=CARTESIAN_POINT('Origin',(0.1875,0.5,0.165359456941537));
#426=CARTESIAN_POINT('',(0.1875,0.5,0.165359456941537));
#427=CARTESIAN_POINT('',(0.1875,0.25,0.046875));
#428=CARTESIAN_POINT('',(0.1875,0.25,-0.046875));
#429=CARTESIAN_POINT('Origin',(0.1875,0.25,3.87203057724985E-17));
#430=CARTESIAN_POINT('Origin',(0.1875,0.25,3.87203057724985E-17));
#431=CARTESIAN_POINT('Origin',(0.,0.5,0.));
#432=CARTESIAN_POINT('Origin',(0.,0.801776695296637,0.));
#433=CARTESIAN_POINT('',(0.,0.6620224467029,0.3125));
#434=CARTESIAN_POINT('Origin',(0.,0.6620224467029,0.));
#435=CARTESIAN_POINT('Origin',(-5.35782974626967E-17,0.801776695296637,
0.4375));
#436=CARTESIAN_POINT('Ctrl Pts',(0.,0.6620224467029,0.3125));
#437=CARTESIAN_POINT('Ctrl Pts',(-0.3125,0.6620224467029,0.3125));
#438=CARTESIAN_POINT('Ctrl Pts',(-0.3125,0.6620224467029,0.));
#439=CARTESIAN_POINT('Ctrl Pts',(-0.3125,0.6620224467029,-0.3125));
#440=CARTESIAN_POINT('Ctrl Pts',(0.,0.6620224467029,-0.3125));
#441=CARTESIAN_POINT('Ctrl Pts',(0.3125,0.6620224467029,-0.3125));
#442=CARTESIAN_POINT('Ctrl Pts',(0.3125,0.6620224467029,0.));
#443=CARTESIAN_POINT('Ctrl Pts',(0.3125,0.6620224467029,0.3125));
#444=CARTESIAN_POINT('Ctrl Pts',(0.,0.6620224467029,0.3125));
#445=CARTESIAN_POINT('Ctrl Pts',(0.,0.606120747265405,0.375));
#446=CARTESIAN_POINT('Ctrl Pts',(-0.375,0.606120747265405,0.375));
#447=CARTESIAN_POINT('Ctrl Pts',(-0.375,0.606120747265405,0.));
#448=CARTESIAN_POINT('Ctrl Pts',(-0.375,0.606120747265405,-0.375));
#449=CARTESIAN_POINT('Ctrl Pts',(0.,0.606120747265405,-0.375));
#450=CARTESIAN_POINT('Ctrl Pts',(0.375,0.606120747265405,-0.375));
#451=CARTESIAN_POINT('Ctrl Pts',(0.375,0.606120747265405,0.));
#452=CARTESIAN_POINT('Ctrl Pts',(0.375,0.606120747265405,0.375));
#453=CARTESIAN_POINT('Ctrl Pts',(0.,0.606120747265405,0.375));
#454=CARTESIAN_POINT('Ctrl Pts',(0.,0.522268198109163,0.375));
#455=CARTESIAN_POINT('Ctrl Pts',(-0.375,0.522268198109163,0.375));
#456=CARTESIAN_POINT('Ctrl Pts',(-0.375,0.522268198109163,0.));
#457=CARTESIAN_POINT('Ctrl Pts',(-0.375,0.522268198109163,-0.375));
#458=CARTESIAN_POINT('Ctrl Pts',(0.,0.522268198109163,-0.375));
#459=CARTESIAN_POINT('Ctrl Pts',(0.375,0.522268198109163,-0.375));
#460=CARTESIAN_POINT('Ctrl Pts',(0.375,0.522268198109163,0.));
#461=CARTESIAN_POINT('Ctrl Pts',(0.375,0.522268198109163,0.375));
#462=CARTESIAN_POINT('Ctrl Pts',(0.,0.522268198109163,0.375));
#463=CARTESIAN_POINT('Origin',(-2.29621274840129E-17,0.522268198109163,
0.1875));
#464=CARTESIAN_POINT('Origin',(0.375,0.25,7.74406115449971E-17));
#465=CARTESIAN_POINT('',(0.375,0.25,-0.0468749999999999));
#466=CARTESIAN_POINT('Origin',(0.1875,1.25,0.165359456941537));
#467=CARTESIAN_POINT('Ctrl Pts',(0.1875,1.50000000000094,0.112673477356427));
#468=CARTESIAN_POINT('Ctrl Pts',(0.1875,1.48733586660831,0.137260267829421));
#469=CARTESIAN_POINT('Ctrl Pts',(0.1875,1.46875,0.165359456941535));
#470=CARTESIAN_POINT('',(0.1875,1.25,0.165359456941537));
#471=CARTESIAN_POINT('Ctrl Pts',(0.1875,1.46875,-0.165359456941537));
#472=CARTESIAN_POINT('Ctrl Pts',(0.1875,1.48733586660831,-0.137260267829421));
#473=CARTESIAN_POINT('Ctrl Pts',(0.1875,1.50000000000094,-0.112673477356426));
#474=CARTESIAN_POINT('Origin',(0.,1.25,0.));
#475=CARTESIAN_POINT('Origin',(0.,1.5,0.));
#476=UNCERTAINTY_MEASURE_WITH_UNIT(LENGTH_MEASURE(0.000393700787401575),
#481,'DISTANCE_ACCURACY_VALUE',
'Maximum model space distance between geometric entities at asserted c
onnectivities');
#477=UNCERTAINTY_MEASURE_WITH_UNIT(LENGTH_MEASURE(0.000393700787401575),
#481,'DISTANCE_ACCURACY_VALUE',
'Maximum model space distance between geometric entities at asserted c
onnectivities');
#478=(
GEOMETRIC_REPRESENTATION_CONTEXT(3)
GLOBAL_UNCERTAINTY_ASSIGNED_CONTEXT((#476))
GLOBAL_UNIT_ASSIGNED_CONTEXT((#481,#486,#485))
REPRESENTATION_CONTEXT('','3D')
);
#479=(
GEOMETRIC_REPRESENTATION_CONTEXT(3)
GLOBAL_UNCERTAINTY_ASSIGNED_CONTEXT((#477))
GLOBAL_UNIT_ASSIGNED_CONTEXT((#481,#486,#485))
REPRESENTATION_CONTEXT('','3D')
);
#480=DIMENSIONAL_EXPONENTS(1.,0.,0.,0.,0.,0.,0.);
#481=(
CONVERSION_BASED_UNIT('inch',#484)
LENGTH_UNIT()
NAMED_UNIT(#480)
);
#482=(
LENGTH_UNIT()
NAMED_UNIT(*)
SI_UNIT(.MILLI.,.METRE.)
);
#483=(
LENGTH_UNIT()
NAMED_UNIT(*)
SI_UNIT(.CENTI.,.METRE.)
);
#484=LENGTH_MEASURE_WITH_UNIT(LENGTH_MEASURE(25.4),#482);
#485=(
NAMED_UNIT(*)
SI_UNIT($,.STERADIAN.)
SOLID_ANGLE_UNIT()
);
#486=(
NAMED_UNIT(*)
PLANE_ANGLE_UNIT()
SI_UNIT($,.RADIAN.)
);
#487=SHAPE_DEFINITION_REPRESENTATION(#488,#489);
#488=PRODUCT_DEFINITION_SHAPE('',$,#491);
#489=SHAPE_REPRESENTATION('',(#248),#478);
#490=PRODUCT_DEFINITION_CONTEXT('part definition',#495,'design');
#491=PRODUCT_DEFINITION('crank-shaft','crank-shaft',#492,#490);
#492=PRODUCT_DEFINITION_FORMATION('',$,#497);
#493=PRODUCT_RELATED_PRODUCT_CATEGORY('crank-shaft','crank-shaft',(#497));
#494=APPLICATION_PROTOCOL_DEFINITION('international standard',
'automotive_design',2009,#495);
#495=APPLICATION_CONTEXT(
'Core Data for Automotive Mechanical Design Process');
#496=PRODUCT_CONTEXT('part definition',#495,'mechanical');
#497=PRODUCT('crank-shaft','crank-shaft',$,(#496));
#498=PRESENTATION_STYLE_ASSIGNMENT((#499));
#499=SURFACE_STYLE_USAGE(.BOTH.,#500);
#500=SURFACE_SIDE_STYLE('',(#501));
#501=SURFACE_STYLE_FILL_AREA(#502);
#502=FILL_AREA_STYLE('',(#503));
#503=FILL_AREA_STYLE_COLOUR('',#504);
#504=COLOUR_RGB('',0.901960784313726,0.901960784313726,0.901960784313726);
ENDSEC;
END-ISO-10303-21;
