ISO-10303-21;
HEADER;
/* Generated by software containing ST-Developer
 * from STEP Tools, Inc. (www.steptools.com) 
 */

FILE_DESCRIPTION(
/* description */ (''),
/* implementation_level */ '2;1');

FILE_NAME(
/* name */ 
'C:\\Users\\cecilia\\Documents\\a-docencia\\2020\\asistida\\teoricos\\
fwdpiezasdesolidworks\\crank-arm.stp',
/* time_stamp */ '2021-09-28T11:29:01-03:00',
/* author */ ('cecilia'),
/* organization */ (''),
/* preprocessor_version */ 'ST-DEVELOPER v17',
/* originating_system */ 'Autodesk Inventor 2019',
/* authorisation */ '');

FILE_SCHEMA (('AUTOMOTIVE_DESIGN { 1 0 10303 214 3 1 1 }'));
ENDSEC;

DATA;
#10=MECHANICAL_DESIGN_GEOMETRIC_PRESENTATION_REPRESENTATION('',(#13),#320);
#11=SHAPE_REPRESENTATION_RELATIONSHIP('SRR','None',#330,#12);
#12=ADVANCED_BREP_SHAPE_REPRESENTATION('',(#14),#319);
#13=STYLED_ITEM('',(#339),#14);
#14=MANIFOLD_SOLID_BREP('Solid1',#184);
#15=CYLINDRICAL_SURFACE('',#216,0.25);
#16=CYLINDRICAL_SURFACE('',#218,0.09375);
#17=FACE_BOUND('',#38,.T.);
#18=FACE_BOUND('',#39,.T.);
#19=FACE_BOUND('',#42,.T.);
#20=FACE_BOUND('',#43,.T.);
#21=CIRCLE('',#206,0.09375);
#22=CIRCLE('',#207,0.09375);
#23=CIRCLE('',#208,0.25);
#24=CIRCLE('',#211,0.09375);
#25=CIRCLE('',#212,0.09375);
#26=CIRCLE('',#213,0.25);
#27=FACE_OUTER_BOUND('',#36,.T.);
#28=FACE_OUTER_BOUND('',#37,.T.);
#29=FACE_OUTER_BOUND('',#40,.T.);
#30=FACE_OUTER_BOUND('',#41,.T.);
#31=FACE_OUTER_BOUND('',#44,.T.);
#32=FACE_OUTER_BOUND('',#45,.T.);
#33=FACE_OUTER_BOUND('',#46,.T.);
#34=FACE_OUTER_BOUND('',#47,.T.);
#35=FACE_OUTER_BOUND('',#48,.T.);
#36=EDGE_LOOP('',(#122,#123,#124,#125));
#37=EDGE_LOOP('',(#126,#127,#128,#129));
#38=EDGE_LOOP('',(#130,#131));
#39=EDGE_LOOP('',(#132,#133));
#40=EDGE_LOOP('',(#134,#135,#136,#137));
#41=EDGE_LOOP('',(#138,#139,#140,#141));
#42=EDGE_LOOP('',(#142,#143));
#43=EDGE_LOOP('',(#144,#145));
#44=EDGE_LOOP('',(#146,#147,#148,#149));
#45=EDGE_LOOP('',(#150,#151,#152,#153));
#46=EDGE_LOOP('',(#154,#155,#156,#157));
#47=EDGE_LOOP('',(#158,#159,#160,#161));
#48=EDGE_LOOP('',(#162,#163,#164,#165,#166,#167));
#49=LINE('',#272,#66);
#50=LINE('',#274,#67);
#51=LINE('',#276,#68);
#52=LINE('',#277,#69);
#53=LINE('',#280,#70);
#54=LINE('',#282,#71);
#55=LINE('',#283,#72);
#56=LINE('',#290,#73);
#57=LINE('',#294,#74);
#58=LINE('',#296,#75);
#59=LINE('',#297,#76);
#60=LINE('',#299,#77);
#61=LINE('',#300,#78);
#62=LINE('',#307,#79);
#63=LINE('',#312,#80);
#64=LINE('',#313,#81);
#65=LINE('',#316,#82);
#66=VECTOR('',#223,0.25);
#67=VECTOR('',#224,0.75);
#68=VECTOR('',#225,0.25);
#69=VECTOR('',#226,0.75);
#70=VECTOR('',#229,3.);
#71=VECTOR('',#230,0.75);
#72=VECTOR('',#231,3.);
#73=VECTOR('',#236,0.330718913883075);
#74=VECTOR('',#241,0.25);
#75=VECTOR('',#242,0.75);
#76=VECTOR('',#243,0.25);
#77=VECTOR('',#246,3.);
#78=VECTOR('',#247,3.);
#79=VECTOR('',#252,0.330718913883075);
#80=VECTOR('',#261,0.25);
#81=VECTOR('',#262,0.25);
#82=VECTOR('',#267,0.09375);
#83=VERTEX_POINT('',#270);
#84=VERTEX_POINT('',#271);
#85=VERTEX_POINT('',#273);
#86=VERTEX_POINT('',#275);
#87=VERTEX_POINT('',#279);
#88=VERTEX_POINT('',#281);
#89=VERTEX_POINT('',#284);
#90=VERTEX_POINT('',#285);
#91=VERTEX_POINT('',#288);
#92=VERTEX_POINT('',#289);
#93=VERTEX_POINT('',#293);
#94=VERTEX_POINT('',#295);
#95=VERTEX_POINT('',#301);
#96=VERTEX_POINT('',#302);
#97=VERTEX_POINT('',#305);
#98=VERTEX_POINT('',#306);
#99=EDGE_CURVE('',#83,#84,#49,.T.);
#100=EDGE_CURVE('',#85,#83,#50,.T.);
#101=EDGE_CURVE('',#85,#86,#51,.T.);
#102=EDGE_CURVE('',#86,#84,#52,.T.);
#103=EDGE_CURVE('',#83,#87,#53,.T.);
#104=EDGE_CURVE('',#88,#87,#54,.T.);
#105=EDGE_CURVE('',#85,#88,#55,.T.);
#106=EDGE_CURVE('',#89,#90,#21,.T.);
#107=EDGE_CURVE('',#90,#89,#22,.T.);
#108=EDGE_CURVE('',#91,#92,#56,.T.);
#109=EDGE_CURVE('',#91,#92,#23,.T.);
#110=EDGE_CURVE('',#93,#87,#57,.T.);
#111=EDGE_CURVE('',#94,#93,#58,.T.);
#112=EDGE_CURVE('',#94,#88,#59,.T.);
#113=EDGE_CURVE('',#93,#84,#60,.T.);
#114=EDGE_CURVE('',#94,#86,#61,.T.);
#115=EDGE_CURVE('',#95,#96,#24,.T.);
#116=EDGE_CURVE('',#96,#95,#25,.T.);
#117=EDGE_CURVE('',#97,#98,#62,.T.);
#118=EDGE_CURVE('',#97,#98,#26,.T.);
#119=EDGE_CURVE('',#92,#98,#63,.T.);
#120=EDGE_CURVE('',#91,#97,#64,.T.);
#121=EDGE_CURVE('',#90,#96,#65,.T.);
#122=ORIENTED_EDGE('',*,*,#99,.F.);
#123=ORIENTED_EDGE('',*,*,#100,.F.);
#124=ORIENTED_EDGE('',*,*,#101,.T.);
#125=ORIENTED_EDGE('',*,*,#102,.T.);
#126=ORIENTED_EDGE('',*,*,#103,.T.);
#127=ORIENTED_EDGE('',*,*,#104,.F.);
#128=ORIENTED_EDGE('',*,*,#105,.F.);
#129=ORIENTED_EDGE('',*,*,#100,.T.);
#130=ORIENTED_EDGE('',*,*,#106,.T.);
#131=ORIENTED_EDGE('',*,*,#107,.T.);
#132=ORIENTED_EDGE('',*,*,#108,.F.);
#133=ORIENTED_EDGE('',*,*,#109,.T.);
#134=ORIENTED_EDGE('',*,*,#110,.F.);
#135=ORIENTED_EDGE('',*,*,#111,.F.);
#136=ORIENTED_EDGE('',*,*,#112,.T.);
#137=ORIENTED_EDGE('',*,*,#104,.T.);
#138=ORIENTED_EDGE('',*,*,#113,.T.);
#139=ORIENTED_EDGE('',*,*,#102,.F.);
#140=ORIENTED_EDGE('',*,*,#114,.F.);
#141=ORIENTED_EDGE('',*,*,#111,.T.);
#142=ORIENTED_EDGE('',*,*,#115,.F.);
#143=ORIENTED_EDGE('',*,*,#116,.F.);
#144=ORIENTED_EDGE('',*,*,#117,.T.);
#145=ORIENTED_EDGE('',*,*,#118,.F.);
#146=ORIENTED_EDGE('',*,*,#101,.F.);
#147=ORIENTED_EDGE('',*,*,#105,.T.);
#148=ORIENTED_EDGE('',*,*,#112,.F.);
#149=ORIENTED_EDGE('',*,*,#114,.T.);
#150=ORIENTED_EDGE('',*,*,#99,.T.);
#151=ORIENTED_EDGE('',*,*,#113,.F.);
#152=ORIENTED_EDGE('',*,*,#110,.T.);
#153=ORIENTED_EDGE('',*,*,#103,.F.);
#154=ORIENTED_EDGE('',*,*,#118,.T.);
#155=ORIENTED_EDGE('',*,*,#119,.F.);
#156=ORIENTED_EDGE('',*,*,#109,.F.);
#157=ORIENTED_EDGE('',*,*,#120,.T.);
#158=ORIENTED_EDGE('',*,*,#117,.F.);
#159=ORIENTED_EDGE('',*,*,#120,.F.);
#160=ORIENTED_EDGE('',*,*,#108,.T.);
#161=ORIENTED_EDGE('',*,*,#119,.T.);
#162=ORIENTED_EDGE('',*,*,#106,.F.);
#163=ORIENTED_EDGE('',*,*,#107,.F.);
#164=ORIENTED_EDGE('',*,*,#121,.T.);
#165=ORIENTED_EDGE('',*,*,#116,.T.);
#166=ORIENTED_EDGE('',*,*,#115,.T.);
#167=ORIENTED_EDGE('',*,*,#121,.F.);
#168=PLANE('',#204);
#169=PLANE('',#205);
#170=PLANE('',#209);
#171=PLANE('',#210);
#172=PLANE('',#214);
#173=PLANE('',#215);
#174=PLANE('',#217);
#175=ADVANCED_FACE('',(#27),#168,.T.);
#176=ADVANCED_FACE('',(#28,#17,#18),#169,.F.);
#177=ADVANCED_FACE('',(#29),#170,.T.);
#178=ADVANCED_FACE('',(#30,#19,#20),#171,.F.);
#179=ADVANCED_FACE('',(#31),#172,.F.);
#180=ADVANCED_FACE('',(#32),#173,.T.);
#181=ADVANCED_FACE('',(#33),#15,.F.);
#182=ADVANCED_FACE('',(#34),#174,.T.);
#183=ADVANCED_FACE('',(#35),#16,.F.);
#184=CLOSED_SHELL('',(#175,#176,#177,#178,#179,#180,#181,#182,#183));
#185=DERIVED_UNIT_ELEMENT(#187,1.);
#186=DERIVED_UNIT_ELEMENT(#324,3.);
#187=(
MASS_UNIT()
NAMED_UNIT(*)
SI_UNIT($,.GRAM.)
);
#188=DERIVED_UNIT((#185,#186));
#189=MEASURE_REPRESENTATION_ITEM('density measure',
POSITIVE_RATIO_MEASURE(1.),#188);
#190=PROPERTY_DEFINITION_REPRESENTATION(#195,#192);
#191=PROPERTY_DEFINITION_REPRESENTATION(#196,#193);
#192=REPRESENTATION('material name',(#194),#319);
#193=REPRESENTATION('density',(#189),#319);
#194=DESCRIPTIVE_REPRESENTATION_ITEM('Generic','Generic');
#195=PROPERTY_DEFINITION('material property','material name',#332);
#196=PROPERTY_DEFINITION('material property','density of part',#332);
#197=DATE_TIME_ROLE('creation_date');
#198=APPLIED_DATE_AND_TIME_ASSIGNMENT(#199,#197,(#332));
#199=DATE_AND_TIME(#200,#201);
#200=CALENDAR_DATE(1996,6,8);
#201=LOCAL_TIME(19,16,50.,#202);
#202=COORDINATED_UNIVERSAL_TIME_OFFSET(0,0,.BEHIND.);
#203=AXIS2_PLACEMENT_3D('placement',#268,#219,#220);
#204=AXIS2_PLACEMENT_3D('',#269,#221,#222);
#205=AXIS2_PLACEMENT_3D('',#278,#227,#228);
#206=AXIS2_PLACEMENT_3D('',#286,#232,#233);
#207=AXIS2_PLACEMENT_3D('',#287,#234,#235);
#208=AXIS2_PLACEMENT_3D('',#291,#237,#238);
#209=AXIS2_PLACEMENT_3D('',#292,#239,#240);
#210=AXIS2_PLACEMENT_3D('',#298,#244,#245);
#211=AXIS2_PLACEMENT_3D('',#303,#248,#249);
#212=AXIS2_PLACEMENT_3D('',#304,#250,#251);
#213=AXIS2_PLACEMENT_3D('',#308,#253,#254);
#214=AXIS2_PLACEMENT_3D('',#309,#255,#256);
#215=AXIS2_PLACEMENT_3D('',#310,#257,#258);
#216=AXIS2_PLACEMENT_3D('',#311,#259,#260);
#217=AXIS2_PLACEMENT_3D('',#314,#263,#264);
#218=AXIS2_PLACEMENT_3D('',#315,#265,#266);
#219=DIRECTION('axis',(0.,0.,1.));
#220=DIRECTION('refdir',(1.,0.,0.));
#221=DIRECTION('center_axis',(-1.,0.,0.));
#222=DIRECTION('ref_axis',(0.,0.,1.));
#223=DIRECTION('',(0.,1.,0.));
#224=DIRECTION('',(0.,0.,-1.));
#225=DIRECTION('',(0.,1.,0.));
#226=DIRECTION('',(0.,0.,-1.));
#227=DIRECTION('center_axis',(-6.11337070250929E-17,1.,0.));
#228=DIRECTION('ref_axis',(0.,0.,1.));
#229=DIRECTION('',(1.,6.11337070250929E-17,0.));
#230=DIRECTION('',(0.,0.,-1.));
#231=DIRECTION('',(1.,6.11337070250929E-17,0.));
#232=DIRECTION('center_axis',(1.25209699709612E-16,1.,0.));
#233=DIRECTION('ref_axis',(-1.,1.25209699709612E-16,0.));
#234=DIRECTION('center_axis',(1.25209699709612E-16,1.,0.));
#235=DIRECTION('ref_axis',(-1.,1.25209699709612E-16,0.));
#236=DIRECTION('',(0.,0.,1.));
#237=DIRECTION('center_axis',(1.25209699709612E-16,1.,0.));
#238=DIRECTION('ref_axis',(-1.,1.25209699709612E-16,0.));
#239=DIRECTION('center_axis',(1.,0.,0.));
#240=DIRECTION('ref_axis',(0.,0.,-1.));
#241=DIRECTION('',(0.,-1.,0.));
#242=DIRECTION('',(0.,0.,-1.));
#243=DIRECTION('',(0.,-1.,0.));
#244=DIRECTION('center_axis',(-1.25209699709612E-16,-1.,0.));
#245=DIRECTION('ref_axis',(0.,0.,-1.));
#246=DIRECTION('',(-1.,1.16558847729675E-16,0.));
#247=DIRECTION('',(-1.,1.16558847729675E-16,0.));
#248=DIRECTION('center_axis',(1.25209699709612E-16,1.,0.));
#249=DIRECTION('ref_axis',(-1.,1.25209699709612E-16,0.));
#250=DIRECTION('center_axis',(1.25209699709612E-16,1.,0.));
#251=DIRECTION('ref_axis',(-1.,1.25209699709612E-16,0.));
#252=DIRECTION('',(0.,0.,1.));
#253=DIRECTION('center_axis',(1.25209699709612E-16,1.,0.));
#254=DIRECTION('ref_axis',(-1.,1.25209699709612E-16,0.));
#255=DIRECTION('center_axis',(0.,0.,-1.));
#256=DIRECTION('ref_axis',(-1.,0.,0.));
#257=DIRECTION('center_axis',(0.,0.,-1.));
#258=DIRECTION('ref_axis',(-1.,0.,0.));
#259=DIRECTION('center_axis',(1.25209699709612E-16,1.,0.));
#260=DIRECTION('ref_axis',(-1.,1.25209699709612E-16,0.));
#261=DIRECTION('',(0.,1.,0.));
#262=DIRECTION('',(0.,1.,0.));
#263=DIRECTION('center_axis',(-1.,1.25209699709612E-16,0.));
#264=DIRECTION('ref_axis',(0.,0.,1.));
#265=DIRECTION('center_axis',(1.25209699709612E-16,1.,0.));
#266=DIRECTION('ref_axis',(-1.,1.25209699709612E-16,0.));
#267=DIRECTION('',(1.25209699709612E-16,1.,0.));
#268=CARTESIAN_POINT('',(0.,0.,0.));
#269=CARTESIAN_POINT('Origin',(0.,0.,0.75));
#270=CARTESIAN_POINT('',(0.,0.,0.));
#271=CARTESIAN_POINT('',(0.,0.25,0.));
#272=CARTESIAN_POINT('',(0.,0.,0.));
#273=CARTESIAN_POINT('',(0.,0.,0.75));
#274=CARTESIAN_POINT('',(0.,0.,0.75));
#275=CARTESIAN_POINT('',(0.,0.25,0.75));
#276=CARTESIAN_POINT('',(0.,0.,0.75));
#277=CARTESIAN_POINT('',(0.,0.25,0.75));
#278=CARTESIAN_POINT('Origin',(0.,0.,0.75));
#279=CARTESIAN_POINT('',(3.,1.83401121075279E-16,0.));
#280=CARTESIAN_POINT('',(0.,0.,0.));
#281=CARTESIAN_POINT('',(3.,1.83401121075279E-16,0.75));
#282=CARTESIAN_POINT('',(3.,1.83401121075279E-16,0.75));
#283=CARTESIAN_POINT('',(0.,0.,0.75));
#284=CARTESIAN_POINT('',(0.28125,-3.6389068978106E-16,0.375));
#285=CARTESIAN_POINT('',(0.46875,-3.87367508476612E-16,0.375));
#286=CARTESIAN_POINT('Origin',(0.375,-3.75629099128836E-16,0.375));
#287=CARTESIAN_POINT('Origin',(0.375,-3.75629099128836E-16,0.375));
#288=CARTESIAN_POINT('',(2.8125,1.71938551008074E-16,0.209640543058463));
#289=CARTESIAN_POINT('',(2.8125,-3.41480999208033E-16,0.540359456941537));
#290=CARTESIAN_POINT('',(2.8125,-3.41480999208033E-16,0.209640543058463));
#291=CARTESIAN_POINT('Origin',(2.625,-3.41480999208033E-16,0.375));
#292=CARTESIAN_POINT('Origin',(3.,0.25,0.75));
#293=CARTESIAN_POINT('',(3.,0.25,0.));
#294=CARTESIAN_POINT('',(3.,0.25,0.));
#295=CARTESIAN_POINT('',(3.,0.25,0.75));
#296=CARTESIAN_POINT('',(3.,0.25,0.75));
#297=CARTESIAN_POINT('',(3.,0.25,0.75));
#298=CARTESIAN_POINT('Origin',(3.,0.25,0.75));
#299=CARTESIAN_POINT('',(3.,0.25,0.));
#300=CARTESIAN_POINT('',(3.,0.25,0.75));
#301=CARTESIAN_POINT('',(0.28125,0.25,0.375));
#302=CARTESIAN_POINT('',(0.46875,0.25,0.375));
#303=CARTESIAN_POINT('Origin',(0.375,0.25,0.375));
#304=CARTESIAN_POINT('Origin',(0.375,0.25,0.375));
#305=CARTESIAN_POINT('',(2.8125,0.25,0.209640543058463));
#306=CARTESIAN_POINT('',(2.8125,0.25,0.540359456941537));
#307=CARTESIAN_POINT('',(2.8125,0.25,0.209640543058463));
#308=CARTESIAN_POINT('Origin',(2.625,0.25,0.375));
#309=CARTESIAN_POINT('Origin',(0.,0.,0.75));
#310=CARTESIAN_POINT('Origin',(0.,0.,0.));
#311=CARTESIAN_POINT('Origin',(2.625,-3.41480999208033E-16,0.375));
#312=CARTESIAN_POINT('',(2.8125,-3.41480999208033E-16,0.540359456941537));
#313=CARTESIAN_POINT('',(2.8125,1.71938551008074E-16,0.209640543058463));
#314=CARTESIAN_POINT('Origin',(2.8125,-3.41480999208033E-16,0.209640543058463));
#315=CARTESIAN_POINT('Origin',(0.375,-3.75629099128836E-16,0.375));
#316=CARTESIAN_POINT('',(0.46875,-3.87367508476612E-16,0.375));
#317=UNCERTAINTY_MEASURE_WITH_UNIT(LENGTH_MEASURE(0.000393700787401575),
#322,'DISTANCE_ACCURACY_VALUE',
'Maximum model space distance between geometric entities at asserted c
onnectivities');
#318=UNCERTAINTY_MEASURE_WITH_UNIT(LENGTH_MEASURE(0.000393700787401575),
#322,'DISTANCE_ACCURACY_VALUE',
'Maximum model space distance between geometric entities at asserted c
onnectivities');
#319=(
GEOMETRIC_REPRESENTATION_CONTEXT(3)
GLOBAL_UNCERTAINTY_ASSIGNED_CONTEXT((#317))
GLOBAL_UNIT_ASSIGNED_CONTEXT((#322,#327,#326))
REPRESENTATION_CONTEXT('','3D')
);
#320=(
GEOMETRIC_REPRESENTATION_CONTEXT(3)
GLOBAL_UNCERTAINTY_ASSIGNED_CONTEXT((#318))
GLOBAL_UNIT_ASSIGNED_CONTEXT((#322,#327,#326))
REPRESENTATION_CONTEXT('','3D')
);
#321=DIMENSIONAL_EXPONENTS(1.,0.,0.,0.,0.,0.,0.);
#322=(
CONVERSION_BASED_UNIT('inch',#325)
LENGTH_UNIT()
NAMED_UNIT(#321)
);
#323=(
LENGTH_UNIT()
NAMED_UNIT(*)
SI_UNIT(.MILLI.,.METRE.)
);
#324=(
LENGTH_UNIT()
NAMED_UNIT(*)
SI_UNIT(.CENTI.,.METRE.)
);
#325=LENGTH_MEASURE_WITH_UNIT(LENGTH_MEASURE(25.4),#323);
#326=(
NAMED_UNIT(*)
SI_UNIT($,.STERADIAN.)
SOLID_ANGLE_UNIT()
);
#327=(
NAMED_UNIT(*)
PLANE_ANGLE_UNIT()
SI_UNIT($,.RADIAN.)
);
#328=SHAPE_DEFINITION_REPRESENTATION(#329,#330);
#329=PRODUCT_DEFINITION_SHAPE('',$,#332);
#330=SHAPE_REPRESENTATION('',(#203),#319);
#331=PRODUCT_DEFINITION_CONTEXT('part definition',#336,'design');
#332=PRODUCT_DEFINITION('crank-arm','crank-arm',#333,#331);
#333=PRODUCT_DEFINITION_FORMATION('',$,#338);
#334=PRODUCT_RELATED_PRODUCT_CATEGORY('crank-arm','crank-arm',(#338));
#335=APPLICATION_PROTOCOL_DEFINITION('international standard',
'automotive_design',2009,#336);
#336=APPLICATION_CONTEXT(
'Core Data for Automotive Mechanical Design Process');
#337=PRODUCT_CONTEXT('part definition',#336,'mechanical');
#338=PRODUCT('crank-arm','crank-arm',$,(#337));
#339=PRESENTATION_STYLE_ASSIGNMENT((#340));
#340=SURFACE_STYLE_USAGE(.BOTH.,#341);
#341=SURFACE_SIDE_STYLE('',(#342));
#342=SURFACE_STYLE_FILL_AREA(#343);
#343=FILL_AREA_STYLE('',(#344));
#344=FILL_AREA_STYLE_COLOUR('',#345);
#345=COLOUR_RGB('',0.666666666666667,0.666666666666667,0.666666666666667);
ENDSEC;
END-ISO-10303-21;
