ISO-10303-21;
HEADER;
/* Generated by software containing ST-Developer
 * from STEP Tools, Inc. (www.steptools.com) 
 */

FILE_DESCRIPTION(
/* description */ (''),
/* implementation_level */ '2;1');

FILE_NAME(
/* name */ 
'C:\\Users\\cecilia\\Documents\\a-docencia\\2020\\asistida\\teoricos\\
fwdpiezasdesolidworks\\crank-knob.stp',
/* time_stamp */ '2021-09-28T11:29:28-03:00',
/* author */ ('cecilia'),
/* organization */ (''),
/* preprocessor_version */ 'ST-DEVELOPER v17',
/* originating_system */ 'Autodesk Inventor 2019',
/* authorisation */ '');

FILE_SCHEMA (('AUTOMOTIVE_DESIGN { 1 0 10303 214 3 1 1 }'));
ENDSEC;

DATA;
#10=MECHANICAL_DESIGN_GEOMETRIC_PRESENTATION_REPRESENTATION('',(#13),#214);
#11=SHAPE_REPRESENTATION_RELATIONSHIP('SRR','None',#224,#12);
#12=ADVANCED_BREP_SHAPE_REPRESENTATION('',(#14),#213);
#13=STYLED_ITEM('',(#233),#14);
#14=MANIFOLD_SOLID_BREP('Solid1',#104);
#15=LINE('',#210,#16);
#16=VECTOR('',#180,0.09375);
#17=CYLINDRICAL_SURFACE('',#141,0.09375);
#18=FACE_BOUND('',#32,.T.);
#19=TOROIDAL_SURFACE('',#130,0.4375,0.1875);
#20=TOROIDAL_SURFACE('',#134,0.4375,0.25);
#21=FACE_OUTER_BOUND('',#27,.T.);
#22=FACE_OUTER_BOUND('',#28,.T.);
#23=FACE_OUTER_BOUND('',#29,.T.);
#24=FACE_OUTER_BOUND('',#30,.T.);
#25=FACE_OUTER_BOUND('',#31,.T.);
#26=FACE_OUTER_BOUND('',#33,.T.);
#27=EDGE_LOOP('',(#69,#70));
#28=EDGE_LOOP('',(#71,#72));
#29=EDGE_LOOP('',(#73,#74,#75,#76,#77,#78));
#30=EDGE_LOOP('',(#79,#80,#81,#82,#83,#84));
#31=EDGE_LOOP('',(#85,#86));
#32=EDGE_LOOP('',(#87,#88));
#33=EDGE_LOOP('',(#89,#90,#91,#92,#93,#94));
#34=CIRCLE('',#125,0.0937499999999999);
#35=CIRCLE('',#126,0.0937499999999999);
#36=CIRCLE('',#128,0.4375);
#37=CIRCLE('',#129,0.4375);
#38=CIRCLE('',#131,0.4375);
#39=CIRCLE('',#132,0.4375);
#40=CIRCLE('',#133,0.1875);
#41=CIRCLE('',#135,0.1875);
#42=CIRCLE('',#136,0.1875);
#43=CIRCLE('',#137,0.25);
#44=CIRCLE('',#139,0.09375);
#45=CIRCLE('',#140,0.09375);
#46=VERTEX_POINT('',#183);
#47=VERTEX_POINT('',#184);
#48=VERTEX_POINT('',#188);
#49=VERTEX_POINT('',#189);
#50=VERTEX_POINT('',#193);
#51=VERTEX_POINT('',#194);
#52=VERTEX_POINT('',#199);
#53=VERTEX_POINT('',#200);
#54=VERTEX_POINT('',#205);
#55=VERTEX_POINT('',#206);
#56=EDGE_CURVE('',#46,#47,#34,.T.);
#57=EDGE_CURVE('',#47,#46,#35,.T.);
#58=EDGE_CURVE('',#48,#49,#36,.T.);
#59=EDGE_CURVE('',#49,#48,#37,.T.);
#60=EDGE_CURVE('',#50,#51,#38,.T.);
#61=EDGE_CURVE('',#51,#50,#39,.T.);
#62=EDGE_CURVE('',#51,#49,#40,.T.);
#63=EDGE_CURVE('',#52,#53,#41,.T.);
#64=EDGE_CURVE('',#53,#52,#42,.T.);
#65=EDGE_CURVE('',#53,#51,#43,.T.);
#66=EDGE_CURVE('',#54,#55,#44,.T.);
#67=EDGE_CURVE('',#55,#54,#45,.T.);
#68=EDGE_CURVE('',#47,#55,#15,.T.);
#69=ORIENTED_EDGE('',*,*,#56,.T.);
#70=ORIENTED_EDGE('',*,*,#57,.T.);
#71=ORIENTED_EDGE('',*,*,#58,.F.);
#72=ORIENTED_EDGE('',*,*,#59,.F.);
#73=ORIENTED_EDGE('',*,*,#60,.F.);
#74=ORIENTED_EDGE('',*,*,#61,.F.);
#75=ORIENTED_EDGE('',*,*,#62,.T.);
#76=ORIENTED_EDGE('',*,*,#59,.T.);
#77=ORIENTED_EDGE('',*,*,#58,.T.);
#78=ORIENTED_EDGE('',*,*,#62,.F.);
#79=ORIENTED_EDGE('',*,*,#63,.F.);
#80=ORIENTED_EDGE('',*,*,#64,.F.);
#81=ORIENTED_EDGE('',*,*,#65,.T.);
#82=ORIENTED_EDGE('',*,*,#61,.T.);
#83=ORIENTED_EDGE('',*,*,#60,.T.);
#84=ORIENTED_EDGE('',*,*,#65,.F.);
#85=ORIENTED_EDGE('',*,*,#63,.T.);
#86=ORIENTED_EDGE('',*,*,#64,.T.);
#87=ORIENTED_EDGE('',*,*,#66,.F.);
#88=ORIENTED_EDGE('',*,*,#67,.F.);
#89=ORIENTED_EDGE('',*,*,#56,.F.);
#90=ORIENTED_EDGE('',*,*,#57,.F.);
#91=ORIENTED_EDGE('',*,*,#68,.T.);
#92=ORIENTED_EDGE('',*,*,#67,.T.);
#93=ORIENTED_EDGE('',*,*,#66,.T.);
#94=ORIENTED_EDGE('',*,*,#68,.F.);
#95=PLANE('',#124);
#96=PLANE('',#127);
#97=PLANE('',#138);
#98=ADVANCED_FACE('',(#21),#95,.F.);
#99=ADVANCED_FACE('',(#22),#96,.F.);
#100=ADVANCED_FACE('',(#23),#19,.T.);
#101=ADVANCED_FACE('',(#24),#20,.F.);
#102=ADVANCED_FACE('',(#25,#18),#97,.F.);
#103=ADVANCED_FACE('',(#26),#17,.T.);
#104=CLOSED_SHELL('',(#98,#99,#100,#101,#102,#103));
#105=DERIVED_UNIT_ELEMENT(#107,1.);
#106=DERIVED_UNIT_ELEMENT(#218,3.);
#107=(
MASS_UNIT()
NAMED_UNIT(*)
SI_UNIT($,.GRAM.)
);
#108=DERIVED_UNIT((#105,#106));
#109=MEASURE_REPRESENTATION_ITEM('density measure',
POSITIVE_RATIO_MEASURE(1.),#108);
#110=PROPERTY_DEFINITION_REPRESENTATION(#115,#112);
#111=PROPERTY_DEFINITION_REPRESENTATION(#116,#113);
#112=REPRESENTATION('material name',(#114),#213);
#113=REPRESENTATION('density',(#109),#213);
#114=DESCRIPTIVE_REPRESENTATION_ITEM('Generic','Generic');
#115=PROPERTY_DEFINITION('material property','material name',#226);
#116=PROPERTY_DEFINITION('material property','density of part',#226);
#117=DATE_TIME_ROLE('creation_date');
#118=APPLIED_DATE_AND_TIME_ASSIGNMENT(#119,#117,(#226));
#119=DATE_AND_TIME(#120,#121);
#120=CALENDAR_DATE(1996,6,8);
#121=LOCAL_TIME(19,34,4.,#122);
#122=COORDINATED_UNIVERSAL_TIME_OFFSET(0,0,.BEHIND.);
#123=AXIS2_PLACEMENT_3D('placement',#181,#142,#143);
#124=AXIS2_PLACEMENT_3D('',#182,#144,#145);
#125=AXIS2_PLACEMENT_3D('',#185,#146,#147);
#126=AXIS2_PLACEMENT_3D('',#186,#148,#149);
#127=AXIS2_PLACEMENT_3D('',#187,#150,#151);
#128=AXIS2_PLACEMENT_3D('',#190,#152,#153);
#129=AXIS2_PLACEMENT_3D('',#191,#154,#155);
#130=AXIS2_PLACEMENT_3D('',#192,#156,#157);
#131=AXIS2_PLACEMENT_3D('',#195,#158,#159);
#132=AXIS2_PLACEMENT_3D('',#196,#160,#161);
#133=AXIS2_PLACEMENT_3D('',#197,#162,#163);
#134=AXIS2_PLACEMENT_3D('',#198,#164,#165);
#135=AXIS2_PLACEMENT_3D('',#201,#166,#167);
#136=AXIS2_PLACEMENT_3D('',#202,#168,#169);
#137=AXIS2_PLACEMENT_3D('',#203,#170,#171);
#138=AXIS2_PLACEMENT_3D('',#204,#172,#173);
#139=AXIS2_PLACEMENT_3D('',#207,#174,#175);
#140=AXIS2_PLACEMENT_3D('',#208,#176,#177);
#141=AXIS2_PLACEMENT_3D('',#209,#178,#179);
#142=DIRECTION('axis',(0.,0.,1.));
#143=DIRECTION('refdir',(1.,0.,0.));
#144=DIRECTION('center_axis',(0.,1.,0.));
#145=DIRECTION('ref_axis',(0.,0.,1.));
#146=DIRECTION('center_axis',(0.,-1.,0.));
#147=DIRECTION('ref_axis',(0.,0.,-1.));
#148=DIRECTION('center_axis',(0.,-1.,0.));
#149=DIRECTION('ref_axis',(0.,0.,-1.));
#150=DIRECTION('center_axis',(0.,-1.,0.));
#151=DIRECTION('ref_axis',(0.,0.,-1.));
#152=DIRECTION('center_axis',(0.,-1.,0.));
#153=DIRECTION('ref_axis',(0.,0.,-1.));
#154=DIRECTION('center_axis',(0.,-1.,0.));
#155=DIRECTION('ref_axis',(0.,0.,-1.));
#156=DIRECTION('center_axis',(0.,-1.,0.));
#157=DIRECTION('ref_axis',(0.,0.,-1.));
#158=DIRECTION('center_axis',(0.,-1.,0.));
#159=DIRECTION('ref_axis',(0.,0.,-1.));
#160=DIRECTION('center_axis',(0.,-1.,0.));
#161=DIRECTION('ref_axis',(0.,0.,-1.));
#162=DIRECTION('center_axis',(-1.,0.,-1.22464679914735E-16));
#163=DIRECTION('ref_axis',(-1.22464679914735E-16,0.,1.));
#164=DIRECTION('center_axis',(0.,-1.,0.));
#165=DIRECTION('ref_axis',(0.,0.,-1.));
#166=DIRECTION('center_axis',(0.,-1.,0.));
#167=DIRECTION('ref_axis',(0.,0.,-1.));
#168=DIRECTION('center_axis',(0.,-1.,0.));
#169=DIRECTION('ref_axis',(0.,0.,-1.));
#170=DIRECTION('center_axis',(1.,0.,1.22464679914735E-16));
#171=DIRECTION('ref_axis',(-1.22464679914735E-16,0.,1.));
#172=DIRECTION('center_axis',(0.,1.,0.));
#173=DIRECTION('ref_axis',(0.,0.,1.));
#174=DIRECTION('center_axis',(0.,-1.,0.));
#175=DIRECTION('ref_axis',(0.,0.,-1.));
#176=DIRECTION('center_axis',(0.,-1.,0.));
#177=DIRECTION('ref_axis',(0.,0.,-1.));
#178=DIRECTION('center_axis',(0.,-1.,0.));
#179=DIRECTION('ref_axis',(0.,0.,-1.));
#180=DIRECTION('',(0.,1.,0.));
#181=CARTESIAN_POINT('',(0.,0.,0.));
#182=CARTESIAN_POINT('Origin',(0.0937499999999999,1.60314531959778E-18,
0.));
#183=CARTESIAN_POINT('',(0.,3.20629063919556E-18,-0.0937499999999999));
#184=CARTESIAN_POINT('',(-1.14810637420064E-17,3.20629063919556E-18,0.09375));
#185=CARTESIAN_POINT('Origin',(0.,3.20629063919556E-18,0.));
#186=CARTESIAN_POINT('Origin',(0.,3.20629063919556E-18,0.));
#187=CARTESIAN_POINT('Origin',(3.79423332453369E-18,0.875,0.));
#188=CARTESIAN_POINT('',(0.,0.875,-0.4375));
#189=CARTESIAN_POINT('',(-5.35782974626967E-17,0.875,0.4375));
#190=CARTESIAN_POINT('Origin',(0.,0.875,0.));
#191=CARTESIAN_POINT('Origin',(0.,0.875,0.));
#192=CARTESIAN_POINT('Origin',(0.,0.6875,0.));
#193=CARTESIAN_POINT('',(0.,0.5,-0.4375));
#194=CARTESIAN_POINT('',(-5.35782974626967E-17,0.5,0.4375));
#195=CARTESIAN_POINT('Origin',(0.,0.5,0.));
#196=CARTESIAN_POINT('Origin',(0.,0.5,0.));
#197=CARTESIAN_POINT('Origin',(-5.35782974626967E-17,0.6875,0.4375));
#198=CARTESIAN_POINT('Origin',(0.,0.25,0.));
#199=CARTESIAN_POINT('',(0.,0.25,-0.1875));
#200=CARTESIAN_POINT('',(-2.29621274840129E-17,0.25,0.1875));
#201=CARTESIAN_POINT('Origin',(0.,0.25,0.));
#202=CARTESIAN_POINT('Origin',(0.,0.25,0.));
#203=CARTESIAN_POINT('Origin',(-5.35782974626967E-17,0.25,0.4375));
#204=CARTESIAN_POINT('Origin',(0.1875,0.25,0.));
#205=CARTESIAN_POINT('',(0.,0.25,-0.09375));
#206=CARTESIAN_POINT('',(-1.14810637420064E-17,0.25,0.09375));
#207=CARTESIAN_POINT('Origin',(0.,0.25,0.));
#208=CARTESIAN_POINT('Origin',(0.,0.25,0.));
#209=CARTESIAN_POINT('Origin',(0.,0.,0.));
#210=CARTESIAN_POINT('',(-1.14810637420064E-17,0.,0.09375));
#211=UNCERTAINTY_MEASURE_WITH_UNIT(LENGTH_MEASURE(0.000393700787401575),
#216,'DISTANCE_ACCURACY_VALUE',
'Maximum model space distance between geometric entities at asserted c
onnectivities');
#212=UNCERTAINTY_MEASURE_WITH_UNIT(LENGTH_MEASURE(0.000393700787401575),
#216,'DISTANCE_ACCURACY_VALUE',
'Maximum model space distance between geometric entities at asserted c
onnectivities');
#213=(
GEOMETRIC_REPRESENTATION_CONTEXT(3)
GLOBAL_UNCERTAINTY_ASSIGNED_CONTEXT((#211))
GLOBAL_UNIT_ASSIGNED_CONTEXT((#216,#221,#220))
REPRESENTATION_CONTEXT('','3D')
);
#214=(
GEOMETRIC_REPRESENTATION_CONTEXT(3)
GLOBAL_UNCERTAINTY_ASSIGNED_CONTEXT((#212))
GLOBAL_UNIT_ASSIGNED_CONTEXT((#216,#221,#220))
REPRESENTATION_CONTEXT('','3D')
);
#215=DIMENSIONAL_EXPONENTS(1.,0.,0.,0.,0.,0.,0.);
#216=(
CONVERSION_BASED_UNIT('inch',#219)
LENGTH_UNIT()
NAMED_UNIT(#215)
);
#217=(
LENGTH_UNIT()
NAMED_UNIT(*)
SI_UNIT(.MILLI.,.METRE.)
);
#218=(
LENGTH_UNIT()
NAMED_UNIT(*)
SI_UNIT(.CENTI.,.METRE.)
);
#219=LENGTH_MEASURE_WITH_UNIT(LENGTH_MEASURE(25.4),#217);
#220=(
NAMED_UNIT(*)
SI_UNIT($,.STERADIAN.)
SOLID_ANGLE_UNIT()
);
#221=(
NAMED_UNIT(*)
PLANE_ANGLE_UNIT()
SI_UNIT($,.RADIAN.)
);
#222=SHAPE_DEFINITION_REPRESENTATION(#223,#224);
#223=PRODUCT_DEFINITION_SHAPE('',$,#226);
#224=SHAPE_REPRESENTATION('',(#123),#213);
#225=PRODUCT_DEFINITION_CONTEXT('part definition',#230,'design');
#226=PRODUCT_DEFINITION('crank-knob','crank-knob',#227,#225);
#227=PRODUCT_DEFINITION_FORMATION('',$,#232);
#228=PRODUCT_RELATED_PRODUCT_CATEGORY('crank-knob','crank-knob',(#232));
#229=APPLICATION_PROTOCOL_DEFINITION('international standard',
'automotive_design',2009,#230);
#230=APPLICATION_CONTEXT(
'Core Data for Automotive Mechanical Design Process');
#231=PRODUCT_CONTEXT('part definition',#230,'mechanical');
#232=PRODUCT('crank-knob','crank-knob',$,(#231));
#233=PRESENTATION_STYLE_ASSIGNMENT((#234));
#234=SURFACE_STYLE_USAGE(.BOTH.,#235);
#235=SURFACE_SIDE_STYLE('',(#236));
#236=SURFACE_STYLE_FILL_AREA(#237);
#237=FILL_AREA_STYLE('',(#238));
#238=FILL_AREA_STYLE_COLOUR('',#239);
#239=COLOUR_RGB('',1.,0.,0.);
ENDSEC;
END-ISO-10303-21;
