ISO-10303-21;
HEADER;
/* Generated by software containing ST-Developer
 * from STEP Tools, Inc. (www.steptools.com) 
 */

FILE_DESCRIPTION(
/* description */ (''),
/* implementation_level */ '2;1');

FILE_NAME(
/* name */ 
'C:\\Users\\cecilia\\Documents\\a-docencia\\2020\\asistida\\teoricos\\
fwdpiezasdesolidworks\\spider.stp',
/* time_stamp */ '2021-09-28T11:30:31-03:00',
/* author */ ('cecilia'),
/* organization */ (''),
/* preprocessor_version */ 'ST-DEVELOPER v17',
/* originating_system */ 'Autodesk Inventor 2019',
/* authorisation */ '');

FILE_SCHEMA (('AUTOMOTIVE_DESIGN { 1 0 10303 214 3 1 1 }'));
ENDSEC;

DATA;
#10=MECHANICAL_DESIGN_GEOMETRIC_PRESENTATION_REPRESENTATION('',(#13),#373);
#11=SHAPE_REPRESENTATION_RELATIONSHIP('SRR','None',#383,#12);
#12=ADVANCED_BREP_SHAPE_REPRESENTATION('',(#14),#372);
#13=STYLED_ITEM('',(#392),#14);
#14=MANIFOLD_SOLID_BREP('Solid1',#209);
#15=FACE_BOUND('',#37,.T.);
#16=FACE_BOUND('',#39,.T.);
#17=FACE_BOUND('',#41,.T.);
#18=FACE_BOUND('',#44,.T.);
#19=PLANE('',#234);
#20=PLANE('',#235);
#21=PLANE('',#237);
#22=PLANE('',#240);
#23=PLANE('',#241);
#24=PLANE('',#244);
#25=FACE_OUTER_BOUND('',#35,.T.);
#26=FACE_OUTER_BOUND('',#36,.T.);
#27=FACE_OUTER_BOUND('',#38,.T.);
#28=FACE_OUTER_BOUND('',#40,.T.);
#29=FACE_OUTER_BOUND('',#42,.T.);
#30=FACE_OUTER_BOUND('',#43,.T.);
#31=FACE_OUTER_BOUND('',#45,.T.);
#32=FACE_OUTER_BOUND('',#46,.T.);
#33=FACE_OUTER_BOUND('',#47,.T.);
#34=FACE_OUTER_BOUND('',#48,.T.);
#35=EDGE_LOOP('',(#139,#140,#141,#142,#143,#144));
#36=EDGE_LOOP('',(#145,#146,#147,#148));
#37=EDGE_LOOP('',(#149));
#38=EDGE_LOOP('',(#150,#151,#152,#153));
#39=EDGE_LOOP('',(#154));
#40=EDGE_LOOP('',(#155,#156,#157,#158));
#41=EDGE_LOOP('',(#159,#160));
#42=EDGE_LOOP('',(#161,#162,#163,#164));
#43=EDGE_LOOP('',(#165,#166,#167,#168));
#44=EDGE_LOOP('',(#169,#170));
#45=EDGE_LOOP('',(#171,#172,#173,#174));
#46=EDGE_LOOP('',(#175,#176,#177,#178,#179,#180));
#47=EDGE_LOOP('',(#181,#182,#183,#184,#185,#186));
#48=EDGE_LOOP('',(#187,#188,#189,#190,#191,#192,#193,#194));
#49=ELLIPSE('',#231,0.265165042944955,0.1875);
#50=ELLIPSE('',#232,0.265165042944955,0.1875);
#51=ELLIPSE('',#233,0.265165042944955,0.1875);
#52=ELLIPSE('',#246,0.265165042944955,0.1875);
#53=ELLIPSE('',#247,0.265165042944955,0.1875);
#54=ELLIPSE('',#248,0.265165042944955,0.1875);
#55=LINE('',#318,#71);
#56=LINE('',#327,#72);
#57=LINE('',#329,#73);
#58=LINE('',#331,#74);
#59=LINE('',#332,#75);
#60=LINE('',#336,#76);
#61=LINE('',#338,#77);
#62=LINE('',#340,#78);
#63=LINE('',#341,#79);
#64=LINE('',#345,#80);
#65=LINE('',#346,#81);
#66=LINE('',#352,#82);
#67=LINE('',#354,#83);
#68=LINE('',#364,#84);
#69=LINE('',#367,#85);
#70=LINE('',#369,#86);
#71=VECTOR('',#257,0.1875);
#72=VECTOR('',#266,0.8);
#73=VECTOR('',#267,0.8);
#74=VECTOR('',#268,0.8);
#75=VECTOR('',#269,0.8);
#76=VECTOR('',#272,0.8);
#77=VECTOR('',#273,0.8);
#78=VECTOR('',#274,0.8);
#79=VECTOR('',#275,0.8);
#80=VECTOR('',#280,0.8);
#81=VECTOR('',#281,0.8);
#82=VECTOR('',#288,0.8);
#83=VECTOR('',#291,0.8);
#84=VECTOR('',#304,0.1875);
#85=VECTOR('',#309,0.1875);
#86=VECTOR('',#312,0.1875);
#87=CIRCLE('',#230,0.1875);
#88=CIRCLE('',#236,0.1875);
#89=CIRCLE('',#238,0.1875);
#90=CIRCLE('',#239,0.1875);
#91=CIRCLE('',#242,0.1875);
#92=CIRCLE('',#243,0.1875);
#93=VERTEX_POINT('',#315);
#94=VERTEX_POINT('',#317);
#95=VERTEX_POINT('',#319);
#96=VERTEX_POINT('',#321);
#97=VERTEX_POINT('',#325);
#98=VERTEX_POINT('',#326);
#99=VERTEX_POINT('',#328);
#100=VERTEX_POINT('',#330);
#101=VERTEX_POINT('',#334);
#102=VERTEX_POINT('',#335);
#103=VERTEX_POINT('',#337);
#104=VERTEX_POINT('',#339);
#105=VERTEX_POINT('',#342);
#106=VERTEX_POINT('',#347);
#107=VERTEX_POINT('',#348);
#108=VERTEX_POINT('',#355);
#109=VERTEX_POINT('',#356);
#110=VERTEX_POINT('',#362);
#111=EDGE_CURVE('',#93,#93,#87,.T.);
#112=EDGE_CURVE('',#93,#94,#55,.T.);
#113=EDGE_CURVE('',#95,#94,#49,.F.);
#114=EDGE_CURVE('',#96,#95,#50,.F.);
#115=EDGE_CURVE('',#94,#96,#51,.F.);
#116=EDGE_CURVE('',#97,#98,#56,.T.);
#117=EDGE_CURVE('',#97,#99,#57,.T.);
#118=EDGE_CURVE('',#100,#99,#58,.T.);
#119=EDGE_CURVE('',#100,#98,#59,.T.);
#120=EDGE_CURVE('',#101,#102,#60,.T.);
#121=EDGE_CURVE('',#103,#102,#61,.T.);
#122=EDGE_CURVE('',#103,#104,#62,.T.);
#123=EDGE_CURVE('',#101,#104,#63,.T.);
#124=EDGE_CURVE('',#105,#105,#88,.T.);
#125=EDGE_CURVE('',#97,#101,#64,.T.);
#126=EDGE_CURVE('',#98,#102,#65,.T.);
#127=EDGE_CURVE('',#106,#107,#89,.T.);
#128=EDGE_CURVE('',#107,#106,#90,.T.);
#129=EDGE_CURVE('',#99,#104,#66,.T.);
#130=EDGE_CURVE('',#100,#103,#67,.T.);
#131=EDGE_CURVE('',#108,#109,#91,.T.);
#132=EDGE_CURVE('',#109,#108,#92,.T.);
#133=EDGE_CURVE('',#95,#96,#52,.T.);
#134=EDGE_CURVE('',#110,#95,#53,.T.);
#135=EDGE_CURVE('',#110,#105,#68,.T.);
#136=EDGE_CURVE('',#96,#110,#54,.T.);
#137=EDGE_CURVE('',#107,#95,#69,.T.);
#138=EDGE_CURVE('',#95,#109,#70,.T.);
#139=ORIENTED_EDGE('',*,*,#111,.T.);
#140=ORIENTED_EDGE('',*,*,#112,.T.);
#141=ORIENTED_EDGE('',*,*,#113,.F.);
#142=ORIENTED_EDGE('',*,*,#114,.F.);
#143=ORIENTED_EDGE('',*,*,#115,.F.);
#144=ORIENTED_EDGE('',*,*,#112,.F.);
#145=ORIENTED_EDGE('',*,*,#116,.F.);
#146=ORIENTED_EDGE('',*,*,#117,.T.);
#147=ORIENTED_EDGE('',*,*,#118,.F.);
#148=ORIENTED_EDGE('',*,*,#119,.T.);
#149=ORIENTED_EDGE('',*,*,#111,.F.);
#150=ORIENTED_EDGE('',*,*,#120,.T.);
#151=ORIENTED_EDGE('',*,*,#121,.F.);
#152=ORIENTED_EDGE('',*,*,#122,.T.);
#153=ORIENTED_EDGE('',*,*,#123,.F.);
#154=ORIENTED_EDGE('',*,*,#124,.T.);
#155=ORIENTED_EDGE('',*,*,#120,.F.);
#156=ORIENTED_EDGE('',*,*,#125,.F.);
#157=ORIENTED_EDGE('',*,*,#116,.T.);
#158=ORIENTED_EDGE('',*,*,#126,.T.);
#159=ORIENTED_EDGE('',*,*,#127,.T.);
#160=ORIENTED_EDGE('',*,*,#128,.T.);
#161=ORIENTED_EDGE('',*,*,#123,.T.);
#162=ORIENTED_EDGE('',*,*,#129,.F.);
#163=ORIENTED_EDGE('',*,*,#117,.F.);
#164=ORIENTED_EDGE('',*,*,#125,.T.);
#165=ORIENTED_EDGE('',*,*,#122,.F.);
#166=ORIENTED_EDGE('',*,*,#130,.F.);
#167=ORIENTED_EDGE('',*,*,#118,.T.);
#168=ORIENTED_EDGE('',*,*,#129,.T.);
#169=ORIENTED_EDGE('',*,*,#131,.F.);
#170=ORIENTED_EDGE('',*,*,#132,.F.);
#171=ORIENTED_EDGE('',*,*,#121,.T.);
#172=ORIENTED_EDGE('',*,*,#126,.F.);
#173=ORIENTED_EDGE('',*,*,#119,.F.);
#174=ORIENTED_EDGE('',*,*,#130,.T.);
#175=ORIENTED_EDGE('',*,*,#133,.F.);
#176=ORIENTED_EDGE('',*,*,#134,.F.);
#177=ORIENTED_EDGE('',*,*,#135,.T.);
#178=ORIENTED_EDGE('',*,*,#124,.F.);
#179=ORIENTED_EDGE('',*,*,#135,.F.);
#180=ORIENTED_EDGE('',*,*,#136,.F.);
#181=ORIENTED_EDGE('',*,*,#127,.F.);
#182=ORIENTED_EDGE('',*,*,#128,.F.);
#183=ORIENTED_EDGE('',*,*,#137,.T.);
#184=ORIENTED_EDGE('',*,*,#133,.T.);
#185=ORIENTED_EDGE('',*,*,#114,.T.);
#186=ORIENTED_EDGE('',*,*,#137,.F.);
#187=ORIENTED_EDGE('',*,*,#113,.T.);
#188=ORIENTED_EDGE('',*,*,#115,.T.);
#189=ORIENTED_EDGE('',*,*,#136,.T.);
#190=ORIENTED_EDGE('',*,*,#134,.T.);
#191=ORIENTED_EDGE('',*,*,#138,.T.);
#192=ORIENTED_EDGE('',*,*,#132,.T.);
#193=ORIENTED_EDGE('',*,*,#131,.T.);
#194=ORIENTED_EDGE('',*,*,#138,.F.);
#195=CYLINDRICAL_SURFACE('',#229,0.1875);
#196=CYLINDRICAL_SURFACE('',#245,0.1875);
#197=CYLINDRICAL_SURFACE('',#249,0.1875);
#198=CYLINDRICAL_SURFACE('',#250,0.1875);
#199=ADVANCED_FACE('',(#25),#195,.F.);
#200=ADVANCED_FACE('',(#26,#15),#19,.F.);
#201=ADVANCED_FACE('',(#27,#16),#20,.T.);
#202=ADVANCED_FACE('',(#28,#17),#21,.T.);
#203=ADVANCED_FACE('',(#29),#22,.F.);
#204=ADVANCED_FACE('',(#30,#18),#23,.T.);
#205=ADVANCED_FACE('',(#31),#24,.F.);
#206=ADVANCED_FACE('',(#32),#196,.F.);
#207=ADVANCED_FACE('',(#33),#197,.F.);
#208=ADVANCED_FACE('',(#34),#198,.F.);
#209=CLOSED_SHELL('',(#199,#200,#201,#202,#203,#204,#205,#206,#207,#208));
#210=DERIVED_UNIT_ELEMENT(#212,1.);
#211=DERIVED_UNIT_ELEMENT(#377,3.);
#212=(
MASS_UNIT()
NAMED_UNIT(*)
SI_UNIT($,.GRAM.)
);
#213=DERIVED_UNIT((#210,#211));
#214=MEASURE_REPRESENTATION_ITEM('density measure',
POSITIVE_RATIO_MEASURE(1.),#213);
#215=PROPERTY_DEFINITION_REPRESENTATION(#220,#217);
#216=PROPERTY_DEFINITION_REPRESENTATION(#221,#218);
#217=REPRESENTATION('material name',(#219),#372);
#218=REPRESENTATION('density',(#214),#372);
#219=DESCRIPTIVE_REPRESENTATION_ITEM('Generic','Generic');
#220=PROPERTY_DEFINITION('material property','material name',#385);
#221=PROPERTY_DEFINITION('material property','density of part',#385);
#222=DATE_TIME_ROLE('creation_date');
#223=APPLIED_DATE_AND_TIME_ASSIGNMENT(#224,#222,(#385));
#224=DATE_AND_TIME(#225,#226);
#225=CALENDAR_DATE(1996,28,6);
#226=LOCAL_TIME(19,13,6.,#227);
#227=COORDINATED_UNIVERSAL_TIME_OFFSET(0,0,.BEHIND.);
#228=AXIS2_PLACEMENT_3D('placement',#313,#251,#252);
#229=AXIS2_PLACEMENT_3D('',#314,#253,#254);
#230=AXIS2_PLACEMENT_3D('',#316,#255,#256);
#231=AXIS2_PLACEMENT_3D('',#320,#258,#259);
#232=AXIS2_PLACEMENT_3D('',#322,#260,#261);
#233=AXIS2_PLACEMENT_3D('',#323,#262,#263);
#234=AXIS2_PLACEMENT_3D('',#324,#264,#265);
#235=AXIS2_PLACEMENT_3D('',#333,#270,#271);
#236=AXIS2_PLACEMENT_3D('',#343,#276,#277);
#237=AXIS2_PLACEMENT_3D('',#344,#278,#279);
#238=AXIS2_PLACEMENT_3D('',#349,#282,#283);
#239=AXIS2_PLACEMENT_3D('',#350,#284,#285);
#240=AXIS2_PLACEMENT_3D('',#351,#286,#287);
#241=AXIS2_PLACEMENT_3D('',#353,#289,#290);
#242=AXIS2_PLACEMENT_3D('',#357,#292,#293);
#243=AXIS2_PLACEMENT_3D('',#358,#294,#295);
#244=AXIS2_PLACEMENT_3D('',#359,#296,#297);
#245=AXIS2_PLACEMENT_3D('',#360,#298,#299);
#246=AXIS2_PLACEMENT_3D('',#361,#300,#301);
#247=AXIS2_PLACEMENT_3D('',#363,#302,#303);
#248=AXIS2_PLACEMENT_3D('',#365,#305,#306);
#249=AXIS2_PLACEMENT_3D('',#366,#307,#308);
#250=AXIS2_PLACEMENT_3D('',#368,#310,#311);
#251=DIRECTION('axis',(0.,0.,1.));
#252=DIRECTION('refdir',(1.,0.,0.));
#253=DIRECTION('center_axis',(0.,0.,-1.));
#254=DIRECTION('ref_axis',(-1.,0.,0.));
#255=DIRECTION('center_axis',(0.,0.,1.));
#256=DIRECTION('ref_axis',(1.,0.,0.));
#257=DIRECTION('',(0.,0.,-1.));
#258=DIRECTION('center_axis',(0.707106781186548,-9.05488238198843E-17,-0.707106781186548));
#259=DIRECTION('ref_axis',(-0.707106781186547,9.05488238198843E-17,-0.707106781186547));
#260=DIRECTION('center_axis',(-0.707106781186548,9.05488238198843E-17,-0.707106781186548));
#261=DIRECTION('ref_axis',(0.707106781186547,-9.05488238198843E-17,-0.707106781186547));
#262=DIRECTION('center_axis',(0.707106781186548,-9.05488238198843E-17,-0.707106781186548));
#263=DIRECTION('ref_axis',(-0.707106781186547,9.05488238198843E-17,-0.707106781186547));
#264=DIRECTION('center_axis',(0.,0.,-1.));
#265=DIRECTION('ref_axis',(-1.,0.,0.));
#266=DIRECTION('',(-6.55643518479423E-16,1.,0.));
#267=DIRECTION('',(1.,0.,0.));
#268=DIRECTION('',(-1.09273919746571E-16,-1.,0.));
#269=DIRECTION('',(-1.,2.18547839493141E-16,0.));
#270=DIRECTION('center_axis',(0.,0.,-1.));
#271=DIRECTION('ref_axis',(-1.,0.,0.));
#272=DIRECTION('',(-6.55643518479423E-16,1.,0.));
#273=DIRECTION('',(-1.,2.18547839493141E-16,0.));
#274=DIRECTION('',(-1.09273919746571E-16,-1.,0.));
#275=DIRECTION('',(1.,0.,0.));
#276=DIRECTION('center_axis',(0.,0.,1.));
#277=DIRECTION('ref_axis',(1.,0.,0.));
#278=DIRECTION('center_axis',(-1.,-5.12221498812049E-16,0.));
#279=DIRECTION('ref_axis',(0.,0.,1.));
#280=DIRECTION('',(0.,0.,-1.));
#281=DIRECTION('',(0.,0.,-1.));
#282=DIRECTION('center_axis',(1.,-1.28055374703012E-16,0.));
#283=DIRECTION('ref_axis',(1.28055374703012E-16,1.,0.));
#284=DIRECTION('center_axis',(1.,-1.28055374703012E-16,0.));
#285=DIRECTION('ref_axis',(1.28055374703012E-16,1.,0.));
#286=DIRECTION('center_axis',(0.,1.,0.));
#287=DIRECTION('ref_axis',(0.,0.,1.));
#288=DIRECTION('',(0.,0.,-1.));
#289=DIRECTION('center_axis',(1.,-1.28055374703012E-16,0.));
#290=DIRECTION('ref_axis',(0.,0.,-1.));
#291=DIRECTION('',(0.,0.,-1.));
#292=DIRECTION('center_axis',(1.,-1.28055374703012E-16,0.));
#293=DIRECTION('ref_axis',(1.28055374703012E-16,1.,0.));
#294=DIRECTION('center_axis',(1.,-1.28055374703012E-16,0.));
#295=DIRECTION('ref_axis',(1.28055374703012E-16,1.,0.));
#296=DIRECTION('center_axis',(-1.70740499604016E-16,-1.,0.));
#297=DIRECTION('ref_axis',(0.,0.,-1.));
#298=DIRECTION('center_axis',(0.,0.,-1.));
#299=DIRECTION('ref_axis',(-1.,0.,0.));
#300=DIRECTION('center_axis',(0.707106781186548,-9.05488238198843E-17,-0.707106781186548));
#301=DIRECTION('ref_axis',(-0.707106781186547,9.05488238198843E-17,-0.707106781186547));
#302=DIRECTION('center_axis',(-0.707106781186548,9.05488238198843E-17,-0.707106781186548));
#303=DIRECTION('ref_axis',(0.707106781186547,-9.05488238198843E-17,-0.707106781186547));
#304=DIRECTION('',(0.,0.,-1.));
#305=DIRECTION('center_axis',(-0.707106781186548,9.05488238198843E-17,-0.707106781186548));
#306=DIRECTION('ref_axis',(0.707106781186547,-9.05488238198843E-17,-0.707106781186547));
#307=DIRECTION('center_axis',(1.,-1.28055374703012E-16,0.));
#308=DIRECTION('ref_axis',(1.28055374703012E-16,1.,0.));
#309=DIRECTION('',(1.,-1.28055374703012E-16,0.));
#310=DIRECTION('center_axis',(1.,-1.28055374703012E-16,0.));
#311=DIRECTION('ref_axis',(1.28055374703012E-16,1.,0.));
#312=DIRECTION('',(1.,-1.28055374703012E-16,0.));
#313=CARTESIAN_POINT('',(0.,0.,0.));
#314=CARTESIAN_POINT('Origin',(-0.668435754189944,0.336033519553072,0.8));
#315=CARTESIAN_POINT('',(-0.480935754189944,0.336033519553072,0.8));
#316=CARTESIAN_POINT('Origin',(-0.668435754189944,0.336033519553072,0.8));
#317=CARTESIAN_POINT('',(-0.480935754189944,0.336033519553072,0.5875));
#318=CARTESIAN_POINT('',(-0.480935754189944,0.336033519553072,0.8));
#319=CARTESIAN_POINT('',(-0.668435754189944,0.148533519553072,0.4));
#320=CARTESIAN_POINT('Origin',(-0.668435754189944,0.336033519553072,0.4));
#321=CARTESIAN_POINT('',(-0.668435754189944,0.523533519553072,0.4));
#322=CARTESIAN_POINT('Origin',(-0.668435754189944,0.336033519553072,0.4));
#323=CARTESIAN_POINT('Origin',(-0.668435754189944,0.336033519553072,0.4));
#324=CARTESIAN_POINT('Origin',(-1.06843575418994,-0.0639664804469276,0.8));
#325=CARTESIAN_POINT('',(-1.06843575418994,-0.0639664804469276,0.8));
#326=CARTESIAN_POINT('',(-1.06843575418994,0.736033519553073,0.8));
#327=CARTESIAN_POINT('',(-1.06843575418994,-0.0639664804469276,0.8));
#328=CARTESIAN_POINT('',(-0.268435754189944,-0.0639664804469276,0.8));
#329=CARTESIAN_POINT('',(-1.06843575418994,-0.0639664804469276,0.8));
#330=CARTESIAN_POINT('',(-0.268435754189944,0.736033519553072,0.8));
#331=CARTESIAN_POINT('',(-0.268435754189944,0.736033519553072,0.8));
#332=CARTESIAN_POINT('',(-0.268435754189944,0.736033519553072,0.8));
#333=CARTESIAN_POINT('Origin',(-1.06843575418994,-0.0639664804469276,0.));
#334=CARTESIAN_POINT('',(-1.06843575418994,-0.0639664804469276,0.));
#335=CARTESIAN_POINT('',(-1.06843575418994,0.736033519553073,0.));
#336=CARTESIAN_POINT('',(-1.06843575418994,-0.0639664804469276,0.));
#337=CARTESIAN_POINT('',(-0.268435754189944,0.736033519553072,0.));
#338=CARTESIAN_POINT('',(-0.268435754189944,0.736033519553072,0.));
#339=CARTESIAN_POINT('',(-0.268435754189944,-0.0639664804469276,0.));
#340=CARTESIAN_POINT('',(-0.268435754189944,0.736033519553072,0.));
#341=CARTESIAN_POINT('',(-1.06843575418994,-0.0639664804469276,0.));
#342=CARTESIAN_POINT('',(-0.480935754189944,0.336033519553072,0.));
#343=CARTESIAN_POINT('Origin',(-0.668435754189944,0.336033519553072,0.));
#344=CARTESIAN_POINT('Origin',(-1.06843575418994,-0.0639664804469276,0.8));
#345=CARTESIAN_POINT('',(-1.06843575418994,-0.0639664804469276,0.8));
#346=CARTESIAN_POINT('',(-1.06843575418994,0.736033519553073,0.8));
#347=CARTESIAN_POINT('',(-1.06843575418994,0.523533519553072,0.4));
#348=CARTESIAN_POINT('',(-1.06843575418994,0.148533519553073,0.4));
#349=CARTESIAN_POINT('Origin',(-1.06843575418994,0.336033519553073,0.4));
#350=CARTESIAN_POINT('Origin',(-1.06843575418994,0.336033519553073,0.4));
#351=CARTESIAN_POINT('Origin',(-1.06843575418994,-0.0639664804469276,0.8));
#352=CARTESIAN_POINT('',(-0.268435754189944,-0.0639664804469276,0.8));
#353=CARTESIAN_POINT('Origin',(-0.268435754189944,0.736033519553072,0.8));
#354=CARTESIAN_POINT('',(-0.268435754189944,0.736033519553072,0.8));
#355=CARTESIAN_POINT('',(-0.268435754189944,0.523533519553072,0.4));
#356=CARTESIAN_POINT('',(-0.268435754189944,0.148533519553073,0.4));
#357=CARTESIAN_POINT('Origin',(-0.268435754189944,0.336033519553072,0.4));
#358=CARTESIAN_POINT('Origin',(-0.268435754189944,0.336033519553072,0.4));
#359=CARTESIAN_POINT('Origin',(-0.268435754189944,0.736033519553072,0.8));
#360=CARTESIAN_POINT('Origin',(-0.668435754189944,0.336033519553072,0.8));
#361=CARTESIAN_POINT('Origin',(-0.668435754189944,0.336033519553072,0.4));
#362=CARTESIAN_POINT('',(-0.480935754189944,0.336033519553072,0.2125));
#363=CARTESIAN_POINT('Origin',(-0.668435754189944,0.336033519553072,0.4));
#364=CARTESIAN_POINT('',(-0.480935754189944,0.336033519553072,0.8));
#365=CARTESIAN_POINT('Origin',(-0.668435754189944,0.336033519553072,0.4));
#366=CARTESIAN_POINT('Origin',(-1.06843575418994,0.336033519553073,0.4));
#367=CARTESIAN_POINT('',(-1.06843575418994,0.148533519553073,0.4));
#368=CARTESIAN_POINT('Origin',(-1.06843575418994,0.336033519553073,0.4));
#369=CARTESIAN_POINT('',(-1.06843575418994,0.148533519553073,0.4));
#370=UNCERTAINTY_MEASURE_WITH_UNIT(LENGTH_MEASURE(0.000393700787401575),
#375,'DISTANCE_ACCURACY_VALUE',
'Maximum model space distance between geometric entities at asserted c
onnectivities');
#371=UNCERTAINTY_MEASURE_WITH_UNIT(LENGTH_MEASURE(0.000393700787401575),
#375,'DISTANCE_ACCURACY_VALUE',
'Maximum model space distance between geometric entities at asserted c
onnectivities');
#372=(
GEOMETRIC_REPRESENTATION_CONTEXT(3)
GLOBAL_UNCERTAINTY_ASSIGNED_CONTEXT((#370))
GLOBAL_UNIT_ASSIGNED_CONTEXT((#375,#380,#379))
REPRESENTATION_CONTEXT('','3D')
);
#373=(
GEOMETRIC_REPRESENTATION_CONTEXT(3)
GLOBAL_UNCERTAINTY_ASSIGNED_CONTEXT((#371))
GLOBAL_UNIT_ASSIGNED_CONTEXT((#375,#380,#379))
REPRESENTATION_CONTEXT('','3D')
);
#374=DIMENSIONAL_EXPONENTS(1.,0.,0.,0.,0.,0.,0.);
#375=(
CONVERSION_BASED_UNIT('inch',#378)
LENGTH_UNIT()
NAMED_UNIT(#374)
);
#376=(
LENGTH_UNIT()
NAMED_UNIT(*)
SI_UNIT(.MILLI.,.METRE.)
);
#377=(
LENGTH_UNIT()
NAMED_UNIT(*)
SI_UNIT(.CENTI.,.METRE.)
);
#378=LENGTH_MEASURE_WITH_UNIT(LENGTH_MEASURE(25.4),#376);
#379=(
NAMED_UNIT(*)
SI_UNIT($,.STERADIAN.)
SOLID_ANGLE_UNIT()
);
#380=(
NAMED_UNIT(*)
PLANE_ANGLE_UNIT()
SI_UNIT($,.RADIAN.)
);
#381=SHAPE_DEFINITION_REPRESENTATION(#382,#383);
#382=PRODUCT_DEFINITION_SHAPE('',$,#385);
#383=SHAPE_REPRESENTATION('',(#228),#372);
#384=PRODUCT_DEFINITION_CONTEXT('part definition',#389,'design');
#385=PRODUCT_DEFINITION('spider','spider',#386,#384);
#386=PRODUCT_DEFINITION_FORMATION('',$,#391);
#387=PRODUCT_RELATED_PRODUCT_CATEGORY('spider','spider',(#391));
#388=APPLICATION_PROTOCOL_DEFINITION('international standard',
'automotive_design',2009,#389);
#389=APPLICATION_CONTEXT(
'Core Data for Automotive Mechanical Design Process');
#390=PRODUCT_CONTEXT('part definition',#389,'mechanical');
#391=PRODUCT('spider','spider',$,(#390));
#392=PRESENTATION_STYLE_ASSIGNMENT((#393));
#393=SURFACE_STYLE_USAGE(.BOTH.,#394);
#394=SURFACE_SIDE_STYLE('',(#395));
#395=SURFACE_STYLE_FILL_AREA(#396);
#396=FILL_AREA_STYLE('',(#397));
#397=FILL_AREA_STYLE_COLOUR('',#398);
#398=COLOUR_RGB('',0.925490196078431,0.729411764705882,0.0509803921568627);
ENDSEC;
END-ISO-10303-21;
