ISO-10303-21;
HEADER;
/* Generated by software containing ST-Developer
 * from STEP Tools, Inc. (www.steptools.com) 
 */

FILE_DESCRIPTION(
/* description */ (''),
/* implementation_level */ '2;1');

FILE_NAME(
/* name */ 
'C:\\Users\\cecilia\\Documents\\a-docencia\\2020\\asistida\\teoricos\\
fwdpiezasdesolidworks\\u-joint_pin2.stp',
/* time_stamp */ '2021-09-28T11:31:47-03:00',
/* author */ ('cecilia'),
/* organization */ (''),
/* preprocessor_version */ 'ST-DEVELOPER v17',
/* originating_system */ 'Autodesk Inventor 2019',
/* authorisation */ '');

FILE_SCHEMA (('AUTOMOTIVE_DESIGN { 1 0 10303 214 3 1 1 }'));
ENDSEC;

DATA;
#10=MECHANICAL_DESIGN_GEOMETRIC_PRESENTATION_REPRESENTATION('',(#13),#92);
#11=SHAPE_REPRESENTATION_RELATIONSHIP('SRR','None',#102,#12);
#12=ADVANCED_BREP_SHAPE_REPRESENTATION('',(#14),#91);
#13=STYLED_ITEM('',(#111),#14);
#14=MANIFOLD_SOLID_BREP('Solid1',#42);
#15=PLANE('',#65);
#16=PLANE('',#66);
#17=FACE_OUTER_BOUND('',#20,.T.);
#18=FACE_OUTER_BOUND('',#21,.T.);
#19=FACE_OUTER_BOUND('',#22,.T.);
#20=EDGE_LOOP('',(#32,#33,#34,#35));
#21=EDGE_LOOP('',(#36));
#22=EDGE_LOOP('',(#37));
#23=LINE('',#85,#24);
#24=VECTOR('',#73,0.1875);
#25=CIRCLE('',#63,0.1875);
#26=CIRCLE('',#64,0.1875);
#27=VERTEX_POINT('',#82);
#28=VERTEX_POINT('',#84);
#29=EDGE_CURVE('',#27,#27,#25,.T.);
#30=EDGE_CURVE('',#27,#28,#23,.T.);
#31=EDGE_CURVE('',#28,#28,#26,.T.);
#32=ORIENTED_EDGE('',*,*,#29,.T.);
#33=ORIENTED_EDGE('',*,*,#30,.T.);
#34=ORIENTED_EDGE('',*,*,#31,.F.);
#35=ORIENTED_EDGE('',*,*,#30,.F.);
#36=ORIENTED_EDGE('',*,*,#31,.T.);
#37=ORIENTED_EDGE('',*,*,#29,.F.);
#38=CYLINDRICAL_SURFACE('',#62,0.1875);
#39=ADVANCED_FACE('',(#17),#38,.T.);
#40=ADVANCED_FACE('',(#18),#15,.T.);
#41=ADVANCED_FACE('',(#19),#16,.F.);
#42=CLOSED_SHELL('',(#39,#40,#41));
#43=DERIVED_UNIT_ELEMENT(#45,1.);
#44=DERIVED_UNIT_ELEMENT(#96,3.);
#45=(
MASS_UNIT()
NAMED_UNIT(*)
SI_UNIT($,.GRAM.)
);
#46=DERIVED_UNIT((#43,#44));
#47=MEASURE_REPRESENTATION_ITEM('density measure',
POSITIVE_RATIO_MEASURE(1.),#46);
#48=PROPERTY_DEFINITION_REPRESENTATION(#53,#50);
#49=PROPERTY_DEFINITION_REPRESENTATION(#54,#51);
#50=REPRESENTATION('material name',(#52),#91);
#51=REPRESENTATION('density',(#47),#91);
#52=DESCRIPTIVE_REPRESENTATION_ITEM('Generic','Generic');
#53=PROPERTY_DEFINITION('material property','material name',#104);
#54=PROPERTY_DEFINITION('material property','density of part',#104);
#55=DATE_TIME_ROLE('creation_date');
#56=APPLIED_DATE_AND_TIME_ASSIGNMENT(#57,#55,(#104));
#57=DATE_AND_TIME(#58,#59);
#58=CALENDAR_DATE(1996,28,6);
#59=LOCAL_TIME(19,42,3.,#60);
#60=COORDINATED_UNIVERSAL_TIME_OFFSET(0,0,.BEHIND.);
#61=AXIS2_PLACEMENT_3D('placement',#80,#67,#68);
#62=AXIS2_PLACEMENT_3D('',#81,#69,#70);
#63=AXIS2_PLACEMENT_3D('',#83,#71,#72);
#64=AXIS2_PLACEMENT_3D('',#86,#74,#75);
#65=AXIS2_PLACEMENT_3D('',#87,#76,#77);
#66=AXIS2_PLACEMENT_3D('',#88,#78,#79);
#67=DIRECTION('axis',(0.,0.,1.));
#68=DIRECTION('refdir',(1.,0.,0.));
#69=DIRECTION('center_axis',(0.,0.,-1.));
#70=DIRECTION('ref_axis',(-1.,0.,0.));
#71=DIRECTION('center_axis',(0.,0.,1.));
#72=DIRECTION('ref_axis',(1.,0.,0.));
#73=DIRECTION('',(0.,0.,1.));
#74=DIRECTION('center_axis',(0.,0.,1.));
#75=DIRECTION('ref_axis',(1.,0.,0.));
#76=DIRECTION('center_axis',(0.,0.,1.));
#77=DIRECTION('ref_axis',(1.,0.,0.));
#78=DIRECTION('center_axis',(0.,0.,1.));
#79=DIRECTION('ref_axis',(1.,0.,0.));
#80=CARTESIAN_POINT('',(0.,0.,0.));
#81=CARTESIAN_POINT('Origin',(0.,0.,0.5));
#82=CARTESIAN_POINT('',(0.1875,0.,0.));
#83=CARTESIAN_POINT('Origin',(0.,0.,0.));
#84=CARTESIAN_POINT('',(0.1875,0.,0.5));
#85=CARTESIAN_POINT('',(0.1875,-2.29621274840129E-17,0.5));
#86=CARTESIAN_POINT('Origin',(0.,0.,0.5));
#87=CARTESIAN_POINT('Origin',(0.,0.,0.5));
#88=CARTESIAN_POINT('Origin',(0.,0.,0.));
#89=UNCERTAINTY_MEASURE_WITH_UNIT(LENGTH_MEASURE(0.000393700787401575),
#94,'DISTANCE_ACCURACY_VALUE',
'Maximum model space distance between geometric entities at asserted c
onnectivities');
#90=UNCERTAINTY_MEASURE_WITH_UNIT(LENGTH_MEASURE(0.000393700787401575),
#94,'DISTANCE_ACCURACY_VALUE',
'Maximum model space distance between geometric entities at asserted c
onnectivities');
#91=(
GEOMETRIC_REPRESENTATION_CONTEXT(3)
GLOBAL_UNCERTAINTY_ASSIGNED_CONTEXT((#89))
GLOBAL_UNIT_ASSIGNED_CONTEXT((#94,#99,#98))
REPRESENTATION_CONTEXT('','3D')
);
#92=(
GEOMETRIC_REPRESENTATION_CONTEXT(3)
GLOBAL_UNCERTAINTY_ASSIGNED_CONTEXT((#90))
GLOBAL_UNIT_ASSIGNED_CONTEXT((#94,#99,#98))
REPRESENTATION_CONTEXT('','3D')
);
#93=DIMENSIONAL_EXPONENTS(1.,0.,0.,0.,0.,0.,0.);
#94=(
CONVERSION_BASED_UNIT('inch',#97)
LENGTH_UNIT()
NAMED_UNIT(#93)
);
#95=(
LENGTH_UNIT()
NAMED_UNIT(*)
SI_UNIT(.MILLI.,.METRE.)
);
#96=(
LENGTH_UNIT()
NAMED_UNIT(*)
SI_UNIT(.CENTI.,.METRE.)
);
#97=LENGTH_MEASURE_WITH_UNIT(LENGTH_MEASURE(25.4),#95);
#98=(
NAMED_UNIT(*)
SI_UNIT($,.STERADIAN.)
SOLID_ANGLE_UNIT()
);
#99=(
NAMED_UNIT(*)
PLANE_ANGLE_UNIT()
SI_UNIT($,.RADIAN.)
);
#100=SHAPE_DEFINITION_REPRESENTATION(#101,#102);
#101=PRODUCT_DEFINITION_SHAPE('',$,#104);
#102=SHAPE_REPRESENTATION('',(#61),#91);
#103=PRODUCT_DEFINITION_CONTEXT('part definition',#108,'design');
#104=PRODUCT_DEFINITION('u-joint_pin2','u-joint_pin2',#105,#103);
#105=PRODUCT_DEFINITION_FORMATION('',$,#110);
#106=PRODUCT_RELATED_PRODUCT_CATEGORY('u-joint_pin2','u-joint_pin2',(#110));
#107=APPLICATION_PROTOCOL_DEFINITION('international standard',
'automotive_design',2009,#108);
#108=APPLICATION_CONTEXT(
'Core Data for Automotive Mechanical Design Process');
#109=PRODUCT_CONTEXT('part definition',#108,'mechanical');
#110=PRODUCT('u-joint_pin2','u-joint_pin2',$,(#109));
#111=PRESENTATION_STYLE_ASSIGNMENT((#112));
#112=SURFACE_STYLE_USAGE(.BOTH.,#113);
#113=SURFACE_SIDE_STYLE('',(#114));
#114=SURFACE_STYLE_FILL_AREA(#115);
#115=FILL_AREA_STYLE('',(#116));
#116=FILL_AREA_STYLE_COLOUR('',#117);
#117=COLOUR_RGB('',0.250980392156863,0.501960784313725,0.501960784313725);
ENDSEC;
END-ISO-10303-21;
